PrimaNota.ru - самый крупный в мире бесплатный архив песенных текстов, аккордов, табулатур и нот


Justin Nozuka - Falling Face First - таба, видео

Регистрация Запомнить меня
Войти через:  Facebook Google Twitter Vk Yandex Mail.ru

Justin Nozuka - Falling Face First - таба, видео

Печатать
Просмотров: 119
Yo guys, it's me again!
Great, although I should be doing something more important, I just got in the feeling of 
another tab, since there is no one of this song in here yet.
Hope you enjoy it!

I believe there's nothing wrong, cause I learned it by looking how Justin plays on 
+ listening. But if there's anything, just make contact ;D

Tabbed by: Sâmia Bianchi AKA SamiRockQueen
E-mail: euplusrock@hotmail.com
------------------------------------


| /  slide up
| \  slide down
| p  pull-off
| x  Mute note


Intro
 e-|--------9-x--2--4-x--|-(9)-9--\2--4---|
 B-|------10--x--3--5-x--|-(10)10-\3--5---|
 G-|----11----x--4--6-x--|-(11)11-\4--6---|  1x
 D-|----------x-------x--|----------------|
 A-|--9-------x--2--4-x--|-(9)-9--\2--4---| whats in "()" you choose if
 E-|----------x-------x--|----------------| you wanna play it or not

 e-|-9--\2--4---|
 B-|-10-\3--5---|
 G-|-11-\4--6---|   2x
 D-|------------|
 A-|-9--\2--4---|
 E-|------------|

Verse
"Young boy grows up..."
 e-|-9--\2--4---|
 B-|-10-\3--5---|
 G-|-11-\4--6---|   16x
 D-|------------|
 A-|-9--\2--4---|
 E-|------------|

Chorus
"And I'll miss the way..."
 e-|-9--x-5-x-2-x(OR)/-4-x-|
 B-|-10-x-7-x-3-x(OR)/-5-x-|
 G-|-11-x-7-x-4-x(OR)/-6-x-|   4x
 D-|----x---x---x(OR)/---x-|
 A-|-9--x-5-x-2-x(OR)/-4-x-|
 E-|----x---x---x(OR)/---x-|

Verse  6x
"Young boy goes to sleep..."

Bridge A
"Mama's Crying..."
 e-|-2-x-2-x--4-x-4-x--|
 B-|-3-x-3-x--5-x-5-x--|
 G-|-4-x-4-x--6-x-6-x--|   4x
 D-|---x-x------x---x--|
 A-|-2-x-2-x--4-x-4-x--|
 E-|---x-x------x---x--|

Chorus 4x

Bridge B
"The sun is setting..."
 e-|-4-x-4-x--2-x-2-x--|
 B-|-5-x-5-x--3-x-3-x--|
 G-|-6-x-6-x--4-x-4-x--|   6x
 D-|---x---x--------x--|
 A-|-4-x-4-x--2-x-2-x--|
 E-|---x---x------x----|

Chorus 4


 e-|-9--x-5-5-x-2-x-4-x-|
 B-|-10-x-7-7-x-3-x-5-x-|
 G-|-11-x-7-7-x-4-x-6-x-|   3x
 D-|----x-----x---x---x-|
 A-|-9--x-5-5-x-2-x-4-x-|
 E-|----x-----x---x---x-|


 e-|-9--x-5-x-2-x-4-x----9--|
 B-|-10-x-7-x-3-x-5-x----10-|
 G-|-11-x-7-x-4-x-6-x----11-|   1x
 D-|----x---x---x---x-------|
 A-|-9--x-5-x-2-x-4-x----9--|
 E-|----x---x---x---x-------|
Добавлено: 18.04.2012
Другие материалы по этой песне:
  • Аккорды и текст

Страница создана 18.04.2012
http://primanota.ru/justin-nozuka/falling-face-first-chords.htm
Привет, Гость.
Предлагаем пройти революционный курс по гитаре.
Подарок от PrimaNota.Ru, забирай!