PrimaNota.ru - самый крупный в мире бесплатный архив песенных текстов, аккордов, табулатур и нот


Justin Nozuka - Down In A Cold Dirty Well - текст песни, таба, видео

Регистрация Запомнить меня
Войти через:  Facebook Google Twitter Vk Yandex Mail.ru

Justin Nozuka - Down In A Cold Dirty Well - текст песни, таба, видео

Печатать
Просмотров: 130
Think it is pretty close, not sure about the beginning, let me know if you think it is different.

Em 0,2,2,0,0,0
Em1 0,5,5,0,0,0
Em2 0,7,7,0,0,0
Em3 0,9,9,0,0,0
Em4 0,0,5,5,0,0
G 3,5,5,4,3,3
Bm 2,2,4,4,3,2
Am 0,0,2,2,1,0
C 0,3,2,0,1,0


I don't know the chord names for the Em variations so I have called them
Em,Em1,Em2,Em3,Em4 

(Capo on 4th Fret)

(Intro)
Em - (strum up)

  Painted a picture of how it's supposed to turn out
e:-------------0-----------------------------------------------------|
B:------------------------------------------------0------------------|
G:-------------------------------------------------------------------|
D:-------------------------------------------------------------------|
A:------------------------------------------------2------------------|
E:-------------0-----------------------------------------------------|

  Turn out
e:-------------------------------------------------------------------|
B:-------------------------------------------------------------------|
G:-------------------------------------------------------------------|
D:-------------------------------------------------------------------|
A:-------------------------------------------------------------------|
E:------0------------------------------------------------------------|

Down in a cold dirty well and I cannot climb out
e:---------0---------------------------------------------------------|
B:--------------------------------------------0----------------------|
G:-------------------------------------------------------------------|
D:-------------------------------------------------------------------|
A:--------------------------------------------2----------------------|
E:---------0---------------------------------------------------------|

Can not climb out
e:-------------------------------------------------------------------|
B:-------------------------------------------------------------------|
G:-------------------------------------------------------------------|
D:-------------------------------------------------------------------|
A:-------------------------------------------------------------------|
E:-------------0-----------------------------------------------------|


Em    Em1 Em2 Em3
can't see no  light
Em3   Em2  Em1 Em
can't hear no  bells
Em   Em1  Em2   Em3
they walk right over me
Em3   Em2  Em1 Em
can't hear my  yells

              Em3                                 Em2   Em4
They state me missing and search all over the town
      Em3                                     Em2   Em4
look left and then right but don't ever look down
Em  Em1 Em2 Em3
dig me  my grave
Em3 Em2  Em1 Em
I   won't be saved
   Em  Em1   Em2 Em3
no I   won't be  saved
   Em3 Em2  Em1 Em
so dig me   my  grave

(Chorus)
G
Helpless

Hopeless
Bm
cold and lonely
Em
only you can save me now
G
Trembling and shivering 
Bm
scared I want this all to end
   Em
If only you could hear me now

           Em3                                  Em2  Em4
My mind is spinning around and around and around
     Em3       
Yea, I'm on my way down
Em2          Em4
on my way down
    Em Em1  Em2 Em3
The louder  I   yell
    Em3 Em2 Em1 Em
the deeper  I  sink
Em  Em1 Em2 Em3
closer  to hell
Em3 Em2 Em1 Em
far from my instincts

(Chorus)
G
Helpless

Hopeless
Bm
cold and lonely
Em
only you can save me now
G
Trembling and shivering 
Bm
scared I want this all to end
   Em                                       Am
If only you could hear me na na na na na na na
              Bm
I'm on my way down
               Em
I'm on my way down
Am
Oh no
              Bm             
I'm on my way down
Em
I'm on my way down

Em Em1 Em2 Em3 Em2 Em1 Em

      oooooo And I will never feel that beat again
e:-------------------------------------------------------------------|
B:----3----------3--------------------------------1-----1h3p1--------|
G:---0---------0-------------------------------0-------0-------------|
D:--4-------4------------------------------2----------2--------------|
A:-5------5-----------------------------3------------3---------------|
E:-------------------------------------------------------------------|

   Oh no,     I will never see the light 
e:-------------------------------------------------------------------|
B:-------3----------------------------3------------------------------|
G:------0----------------------------0-------------------------------|
D:-----4----------------------------4--------------------------------|
A:----5----------------------------5---------------------------------|
E:-------------------------------------------------------------------|
                                            C  Am  Bm
   and I will never hear those bells ringing
e:-------------------------------------------------------------------|
B:-------------------------------------1-----------------------------|
G:------------------------------------0------------------------------|
D:-----------------------------------2-------------------------------|
A:----------------------------------3--------------------------------|
E:-------------------------------------------------------------------|  


(Chorus)
G
Helpless

Hopeless
Bm
cold and lonely
Em
only you can save me now
G
Trembling and shivering 
Bm
scared I want this all to end
   Em                                       
If only you could hear me na na na na na na na
G               Bm
Hey ye ye ye ye ye
                    Em
I'm on my way de de down

On my may de de down
G               Bm
  I'm on my way down 
Em
my way down
Em Em1 Em2 Em3 Em2 Em1 Em


Em Em1 Em2 Em3
Dig me my grave
Em3     Em2   Em1 Em
cause I won't be  saved
Em Em1   Em2 Em3
I  won't be  saved
   Em3 Em2 Em1 Em
so dig me  my grave

Down in a cold dirty well and I cannot climb out
Добавлено: 29.05.2012
Другие материалы по этой песне:
  • Аккорды и текст

Страница создана 29.05.2012
http://primanota.ru/justin-nozuka/down-in-a-cold-dirty-well-chords.htm
Привет, Гость.
Предлагаем пройти революционный курс по гитаре.
Подарок от PrimaNota.Ru, забирай!