PrimaNota.ru - самый крупный в мире бесплатный архив песенных текстов, аккордов, табулатур и нот


Justin Nozuka - Carried You - таба, видео

Регистрация Запомнить меня
Войти через:  Facebook Google Twitter Vk Yandex Mail.ru

Justin Nozuka - Carried You - таба, видео

Печатать
Просмотров: 111
Awesome song by J.N. He doesn't disappoint! 99.9% sure this is correct. Give it a 
go. Correct me if anything...

Artist: Justin Nozuka
Song: Carried You
Album: You Wind I Land and Sea
Tuning: Standard

Intro

e |--9----x-----x----5----|
B |--7----9-----9----7----|
G |--7----9-----7----6----|
D |--7----x-----9----7----|
A |--7----9-----9----5----|     
E |--x----x-----x----5----|

Verse 1

e |---9-----5----x----5----|
B |---10----7----9----7----|
G |---9-----6----9----6----| (x4)
D |---11----7----x----7----|
A |---9-----5----9----5----|    
E |---x-----5----x----5----|

When did you unfold, slowly turn cold,
and finalize your soul
I will not be the one to tell your 
Momma that her son has gone
From and out the moment we locked eyes 
I knew that this was wrong
I will not be the one to let you slip 
and watch you turn to stone

Chorus

e |--9----x-----x----5----|
B |--7----9-----9----7----|
G |--7----9-----7----6----| (x2)
D |--7----x-----9----7----|
A |--7----9-----9----5----|     
E |--x----x-----x----5----|

I carried you, carried you,
Carried down to the ground
I carried you
Mercy mercy mercy mercy

Verse 2

Sent a prayer to hold this coloured tone 
I knew had touched your soul
How can I be the one to bring you the 
Sun when I freed you of your bones
Oh no I will not let you go
I shall take my hand unto my heart
And leave this broken road
Everything I'll give to you
So we can dance the war, I'll let you lead
But let me take control

Chorus (x2)

Bridge


e |--5----9—--7---x-----x---x----7--|
B |--7----7---7---9-----7---6----9--|
G |--6----7—--7---9-----7---6----8--|(x4)
D |--7----7—--7---x-----x---x----9--|
A |--5----7---7---9-----7---6----7--|   
E |--5----x---x---x-----x---x----7--|

Heaven is only three blocks
Heave is only three blocks away

Chorus (x2)

e |-----9---|
B |-----10--|
G |-----9---|(x2)
D |-----11--|
A |-----9---|   
E |-----x---|

Heaven is only three blocks
Heave is only three blocks away


Добавлено: 24.06.2012
Другие материалы по этой песне:
  • Аккорды и текст

Страница создана 24.06.2012
http://primanota.ru/justin-nozuka/carried-you-chords.htm
Привет, Гость.
Предлагаем пройти революционный курс по гитаре.
Подарок от PrimaNota.Ru, забирай!