PrimaNota.ru - самый крупный в мире бесплатный архив песенных текстов, аккордов, табулатур и нот


Justin Nozuka - Blue Velvet Sea - текст песни, таба, видео

Регистрация Запомнить меня
Войти через:  Facebook Google Twitter Vk Yandex Mail.ru

Justin Nozuka - Blue Velvet Sea - текст песни, таба, видео

Печатать
Просмотров: 135
Justin Nozuka - Blue Velvet Sea

This has to be one of my favorite songs by Justin. I believe this is pretty accurate. 
Hope you like it!

Chords:

b -9/7/9/8/7/7
B -7/9/9/8/7/7
A -5/7/7/6/5/5
C# -9/11/11/10/9/9
F# -2/4/4/3/2/2
G# -4/6/6/5/4/4

(VERSE 1 & 2)
        b                 B                 A                B
l-----------------|-----------------|-----------------|----------------------|
l-----------------|-----------------|-----------------|----------------------|
l-8--------8------|--8---------8----|--6---------6----|--8--------8----------|
l-----------------|-----------------|-----------------|----------------------|   X2
l-----------------|-----------------|-----------------|----------------------|
l-9--------9------|--7---------7----|--5---------5----|--7--------7----------|
       A                  B                 A                B
l-----------------|-----------------|-----------------|-----------------|
l-----------------|-----------------|-----------------|-----------------|
l--6---------6----|--8----------8---|--6---------6----|--8-----------8--|
l-----------------|-----------------|-----------------|-----------------|
l-----------------|-----------------|-----------------|-----------------|
l--5---------5----|--7----------7---|--5---------5----|--7-----------7--|


(TAG)
|-----------------|-----------------|-------------------|
|-----------------|-----------------|-------------------|
|--6---7---8------|---8-----8-----8-|---8-----8---------|
|-----------------|-----------------|-------------------|
|-----------------|-----------------|-------------------|
|--5---6---7------|-7-----7-----7---|-7----7------------|



(VERSE 3)
      b                   B                   A              G#
|-----------------|-----------------|-----------------|-------------------|
|-----------------|-----------------|-----------------|-------------------|
|--8-----------8--|--8-----------8--|--6-----------6--|--5----------------|
|-----------------|-----------------|-----------------|-------------------|
|-----------------|-----------------|-----------------|-------------------|
|--9-----------9--|--7-----------7--|--5-----------5--|--4----------------|




(VERSE 1)
It happened one warm summer night
The wind and rain collided right
Below the stars and fell all over me

I saw it all before my eyes
How she used the grey to twist the sky
And the flash of light to cut the running sea

And on top of the hill where god sits on his throne
A gentle giant wave appeared and took him down below

(CHORUS)

          C#   A    B     A
Take me on                      (4x)

(VERSE 2)
As the wave came close I tried to flee
But it swept me right off my feet
And a gentle touch pulled me down below

There were dolphins dancing everywhere

And mermaids with red glowing hair
And god shone on his throne like the sun

Passing wisdom trees filled with golden leaves
I could feel the warmth of a perfect melody


(CHORUS)
Take me on

(BRIDGE)
F#          A                C#
Blue....... Vel........vet Sea   (2x)
(TAG)

(VERSE 3)
Overhead twelve fairies flew
And lit the sky green, red and blue
And the stars rearranged just for you
          B   A   B   A
Take me on
          C# A  B   A
Take me on                (3x)
          C#
Take me on
Добавлено: 22.03.2012
Другие материалы по этой песне:
  • Аккорды и текст

Страница создана 22.03.2012
http://primanota.ru/justin-nozuka/blue-velvet-sea-chords.htm
Привет, Гость.
Предлагаем пройти революционный курс по гитаре.
Подарок от PrimaNota.Ru, забирай!