PrimaNota.ru - самый крупный в мире бесплатный архив песенных текстов, аккордов, табулатур и нот


Justin King - Missing Something - бас-таба, видео

Регистрация Запомнить меня
Войти через:  Facebook Google Twitter Vk Yandex Mail.ru

Justin King - Missing Something - бас-таба, видео

Печатать
Просмотров: 135
Bassist: Drew Dresman
Tuning: DADG
Bass Recorded: Fender P Bass
Notes: I worked this out by ear so some of the voicings may not be perfectly accurate, 
but the notes themselves are accurate. Some of the rhythms are a little tough
to determine from the recording but I think I got 95% of it right.

Key:
() = note that is still ringing
~  = let ring
h  = hammer on
/\ = slide
x  = muted note

Verse (0:27):
G----------------------------------------|
D---7-7-7-7h9-7-9---------------7-----0--|
A-----------------7-9-7-7-7-7h9---9-7----|
D----------------------------------------|

G--------------------------------------------|
D---7-7-7-7h9-7-9----------------------------|
A-----------------7-\---------/7-7-7-7--5~---|
D---------------------2-2-2-2----------------|

Chorus - Listen for rhythm (0:47):
G---------------------------------------------------|
D---------------------------------------------------|
A--5-5-5------------------5-5-5---------------------|
D--------7-7-7-4-4-4-5-5-5------7-7-7-4-4-4-2-2-2---|

G-----------------------------------------------------------|
D-----------------------------------------------------------|
A--5-5-5-------------------5-5-5----------------------------|
D--------7-7-7-4-4-4-5-5-5-------7-7-7-4-4-4-5-5-5-2-2-2-2--|

Interlude (1:15):
G---------------------------------------|
D---------------------------------/4----|
A---/5-5-5-5--------------------2-------|
D-------------7-7-7-7\--2-2-2-2---------|

Verse 2 (1:22):
G----------------------------------|----------------------------|
D----------------------------------|----------------------------|
A---5~-------------------2-2-2-/7--|--5~------------------2-2~--|
D-------7-7-7-(9)\-2-2-2-----------|-----7-7-7-(9)\-2-2-2-------|

G--------------------------------------------------------------------------|
D--7-7-7-7h9-7-9---------------7-----0--7-7-7-7h9-7-9----------------------|
A----------------7-9-7-7-7-7h9---9-7------------------7\-------------------|
D---------------------------------------------------------2-2-2-2-2-2-2-2--|

Chorus 2 (1:49):
G----------------------------------------------------|
D----------------------------------------------------|
A--5-5-5-------------------5-5-5---------------------|
D--------7-7-7-4-4-4-5-5-5-------7-7-7-4-4-4-2-2-2---|

G---------------------------------------------------|
D---------------------------------------------------|
A--5-5-5-------------------5-5-5--------------------|
D--------7-7-7-4-4-4-5-5-5-------7-7-7-4-4-4-5-5-5--|

Guitar Solo - listen for slide timings (2:15):
G---------------7~\--|----------------|
D---5~--7~--9~-------|--5~------------|
A--------------------|------9~--7~\---|
D--------------------|----------------|

Chorus 3 (2:35):
G---------------------------------------------------|
D---------------------------------------------------|
A--5-5-5-------------------5-5-5--------------------|
D--------7-7-7-4-4-4-2-2-2-------7-7-7-4-4-4-5-5-5--|

G-------------------------------------|
D-------------------------------------|
A--5-5-5---------------------------2--|
D--------7-7-7-4-4-4-5-5-5-5-2-2-2----|

G-------------------------------------|
D-------------------------------------|
A--5-5-5-5-7--------------------------|
D------------7-7-7-7-4-x4-4-5-5-5-5---|

G------------------------------------------|
D------------------------------------(2)~--|
A--5-5-5-5-7-------------------------------|
D------------7-7-7-7-4-x4-4--2-2-222--2~---|
Добавлено: 10.06.2012
Другие материалы по этой песне:
  • Аккорды и текст

Страница создана 10.06.2012
http://primanota.ru/justin-king/missing-something-chords.htm
Привет, Гость.
Предлагаем пройти революционный курс по гитаре.
Подарок от PrimaNota.Ru, забирай!