PrimaNota.ru - самый крупный в мире бесплатный архив песенных текстов, аккордов, табулатур и нот


Justin Hayward - The Eastern Sun - таба, видео

Регистрация Запомнить меня
Войти через:  Facebook Google Twitter Vk Yandex Mail.ru

Justin Hayward - The Eastern Sun - таба, видео

Печатать
Просмотров: 69
                             The Eastern Sun - Justin Hayward
-------------------------------------------------------------------------------
Tabbed by:EVILSHADOWVOICE
E-mail: Aerosmith40rulez@yahoo.com

Tuning:Standard

Capo:3

   VERSE 1 and 2
e|---------------------------------------------------------------------------|
B|---------------------0--------------------------------1--------------------|                                
G|-------------0-----------0--------------------2-----------2----------------|   
D|--------0----------------------------------0-------------------------------|
A|---------------------------------------------------------------------------|
E|---3--------------3----------------0h2-------------2-----------------------|
22x then it goes to chorus
(on the fourth time)......................  Let me be......
(on the thirteenth time)                     Let me be......
e|-----------------------------3---------------------------------------------|
B|------------------0-----------------------------0--------------------------|
G|------------0--------0------------------0-----------0----------------------|
D|--------0----------------------------0-------------------------------------|
A|---------------------------------------------------------------------------|
E|---3-----------3-------------3--------------3------------------------------|
                                              And if we find............
(on the 22nd time play this to lead into chorus)

    CHORUS 1
e|-----------------------------------------------------------------------------|
B|--0------------0-------------0-------------0---------0------------0----------|
G|--------0----------------------------0----------------------0----------------|
D|------2-----------2--------------1-------------1---------2-----------2-------|
A|-----------------------------2----------2------------------------------------|
E|--0---------0----------------------------------------0---------0-------------|

e|-1-----------------------------------------------------------------------------|
B|----------------0--------------1------------0-----------0------------0---------|
G|---------0-----------------------------0-----------------------0--------0------|
D|------0-------------0---------------2----------2-----------0-------------------|
A|-------------------------------0-----------------------------------------------|                    
E|-3-----------3---------------------------0--------------3----------3-----------|


e|---------------------------- ------------------------|
B|-1------------1--------------1-------------1---------|   Play the chorus 2x, on the second time
G|--------0---------------------------2----------2-----| play the part where I put the word "again" 6x
D|-----2-----------2----------------0------------------|
A|-0---------------------------------------------------|
E|-----------3-----------------2----------2------------|
                               again.............

VERSE 2 and 3
e|----------------------------------------------------------|
B|------------------0------------------------------1--------|
G|-----------0----------0-------------------2---------2-----|                                          
D|-------0-------------------------------0------------------| Same as the first two verses for 29x 
A|----------------------------------------------------------|                        
E|--3-----------3------------------0h2----------2-----------|   
    east.........
    golden brown.........                                                             
e|-------------------------------3------------------------------|
B|-------------------0------------------------------0-----------|
G|------------0----------0------------------0-------------------|
D|--------0-----------------------------0---------------0-------| Play this on the 29th time
A|--------------------------------------------------------------|
E|--3------------3---------------3--------------3---------------|


   CHORUS 2
e|-----------------------------------------------------------------------------|
B|--0--------------0-----------0---------------0-------0---------------0-------|
G|--------0----------------------------0----------------------0----------------|
D|------2--------------2-----------1-------------1---------2---------------2---|
A|-----------------------------2----------2------------------------------------|
E|--0---------0----------------------------------------0---------0-------------|

e|-1-------------------------------------------------------------------------------|
B|----------------0--------------1------------0-----------0------------0-----------|
G|---------0-----------------------------0-----------------------0--------0--------|
D|------0-------------0---------------2----------2-----------0---------------------|
A|-------------------------------0-------------------------------------------------|                   
E|-3-----------3---------------------------0--------------3----------3-------------|


e|---------------------------- ------------------------|
B|-1------------1--------------1-------------1---------|   Play the chorus 2x, on the second time
G|--------0---------------------------2----------2-----| play the part where I put the word "again" 6x
D|-----2-----------2----------------0------------------|
A|-0---------------------------------------------------|
E|-----------3-----------------2----------2------------|
                               again.............

   Verse 4
e|--------------------------------------------------------------------|
B|--------------------0-------------------------------1---------------| Play this measure 9x
G|-----------0-------------0------------------2-----------2-----------|   Then play it 13x
D|------0---------------------------------0---------------------------|                                
A|--------------------------------------------------------------------|
E|--3-------------3----------------0h2-----------2--------------------|


Ending
e|------------------------------------3----------------------------|
B|--------------------0--------------------------------------------|
G|----------0--------------0---------------------------------------|
D|------0----------------------------------------------------------|
A|-----------------------------------------------------------------|
E|-3------------3---------------------3----------------------------|

************************************

| /   slide up
| \   slide down
| h   hammer-on
| p   pull-off
| ~   vibrato
| +   harmonic
| x   Mute note
| b   Bend
| pb  Pre-bend
| br  Bend release
| pbr Pre-bend release
| brb Bend release bend

************************************
Добавлено: 21.10.2015
Другие материалы по этой песне:
  • Аккорды и текст

Страница создана 21.10.2015
http://primanota.ru/justin-hayward/eastern-sun-chords.htm
Привет, Гость.
Предлагаем пройти революционный курс по гитаре.
Подарок от PrimaNota.Ru, забирай!