PrimaNota.ru - самый крупный в мире бесплатный архив песенных текстов, аккордов, табулатур и нот


justin bond & the hungry march band - In The End - аккорды и текст, видео

Регистрация Запомнить меня
Войти через:  Facebook Google Twitter Vk Yandex Mail.ru

justin bond & the hungry march band - In The End - аккорды и текст, видео

Печатать
Просмотров: 80
In The End
justin bond & the hungry march band
Justin Bond & the Hungry Marching Band                    

(Intro)

     C                              D7/C    
e |-----------------------------------------------------------------------
b |--------8-----10------8------------------------10----------------------
g |----------------------------------------11-------------11--------------
d |----10-----10-----10-----10---------10------10-----10------10----------
a |-----------------------------------------------------------------------
E |-8-------------------------------8-------------------------------------

F                                   Dm
------------------------------------------------5--------------------------
------------------10----------------------6------------6-------------------
----------10--------------------------7------7-----7-------7--------------- 
-----10-------10------10-------10------------------------------------------
-8-------------------------7--------5-------------------------------------- 
---------------------------------------------------------------------------

(timing is a bit difficult with the chords, I always do a slow fingerpicking pattern)

(verse 1)
 
    C            G
We all bear the scars

          F           C
Yeah, we all feign a laugh

    C              G
We all cry in the dark

         F             G7
Get cut off before we start

    G                  Dm
And as your first act begins

      C                   A
You realise they're all waiting

       Dm          G           
For a fall, for a flaw,
       Dm G
for the end


(Verse 2)

               C                  G
And there's a path stained with tears
            F                C
Could you talk to quiet my fears
       C             G
Could you pull me aside
          F                    G7
Just to acknowledge that I've tried

(Chorus)

G                      Dm
As your last breath begins
  C               A
Contently take it in
 Dm                 G
Cause we all get it in
   Dm G
The end

G                      Dm
As your last breath begins
  C               A
Contently take it in
 Dm                 G
Cause we all get it in
   Dm G
The end


Добавлено: 16.06.2016
Другие материалы по этой песне:
  • Аккорды и текст

Страница создана 16.06.2016
http://primanota.ru/justin-bond-and-hungry-march-band/in-end-chords.htm
Привет, Гость.
Предлагаем пройти революционный курс по гитаре.
Подарок от PrimaNota.Ru, забирай!