PrimaNota.ru - самый крупный в мире бесплатный архив песенных текстов, аккордов, табулатур и нот


Justin Bieber - Yellow Raincoat - текст песни, таба, видео

Регистрация Запомнить меня
Войти через:  Facebook Google Twitter Vk Yandex Mail.ru

Justin Bieber - Yellow Raincoat - текст песни, таба, видео

Печатать
Просмотров: 476
My first tab, tell me if anything wrong with it, please. Hope you enjoy it ~Jam. 
Follow Me on Twitter @JamLovesJustin

Capo on 1st


E|--------x--------0|--------x--------x----|-------x--------0----|E
B|-----3--x--0-----0|-----3--x--0-----x----|----3--x--0-----0----|B
G|--------x-----0--0|--------x-----2--x----|-------x-----0--0----|G
D|--------x---------|--2-----x--0-----x----|-------x-------------|D
A|--2-----x--3------|--------x--------x--0-|-------x--3--------3-|A
E|--------x---------|--------x--------x----|--0----x-------------|E
                  Intro

E|-------x-------------|--------x---------------|
B|----3--x--0-----0----|-----3--x--0--0---------|
G|-------x-----0--0----|--------x-------2--2----|   X4
D|-------x-------------|--------x--0----------0-|
A|-------x--3--------3-|--------x---------------|
E|--0----x-------------|--0-----x---------------|
     Verse and Bridge 

E|--------x-------x----|---------x-----x----|------x--------x---|
B|-----0--x-------x----|--0--H1--x--3--x--0-|----0-x--------x---|
G|--------x--2--2-x----|---------x-----x----|------x--2--2--x---|
D|--------x-------x----|---------x-----x--0-|------x--------x---|
A|--3-----x--3----x----|---------x--2--x----|--3---x--3-----x---|
E|--------x-------x--0-|--3------x-----x----|------x--------x--0|
    Hook
E|--------x--2--x----|-------x-------x---|---------x-----x----|
B|--0--H1-x-----x--3-|-----0-x-------x---|--0--H1--x--3--x--0-|
G|--------x-----x----|-------x--2--2-x---|---------x-----x----|
D|--------x--2--x--0-|-------x-------x---|---------x--2--x--0-|
A|--------x-----x----|--3----x--3----x---|---------x-----x----|
E|--3-----x-----x----|-------x-------x-0-|--3------x-----x----|
        Hook

E|-------x--------x----|---------x--2--x----|-------x--------0---|
B|-----0-x--------x----|--0--H1--x-----x--3-|----3--x--0-----0---|
G|-------x--2--2--x----|---------x-----x----|-------x-----0--0---|
D|-------x--------x----|---------x--2--x--0-|-------x------------|
A|--3----x--3-----x----|---------x-----x----|-------x--3--------3|
E|-------x--------x--0-|--3------x-----x----|--0----x------------|
         Hook         

E|--------x---------------|--------x--------0----|-------x----------------|
B|-----3--x--0--0---------|-----3--x--0-----0----|----3--x--0--0----------|
G|--------x--------2--2---|--------x-----0--0----|-------x--------2--2----|
D|--------x--0-----------0|--------x-------------|-------x--0-----------0-|
A|--------x---------------|--------x--3--------3-|-------x----------------|
E|--0-----x---------------|--0-----x-------------|--0----x----------------|
    Hook

        It pretty much repeats its self through the rest of the song.
Добавлено: 29.06.2013
Другие материалы по этой песне:
  • Аккорды и текст

Страница создана 29.06.2013
http://primanota.ru/justin-bieber/yellow-raincoat-chords.htm
Привет, Гость.
Предлагаем пройти революционный курс по гитаре.
Подарок от PrimaNota.Ru, забирай!