PrimaNota.ru - самый крупный в мире бесплатный архив песенных текстов, аккордов, табулатур и нот


Justice - We Are Your Friends - бас-таба, видео

Регистрация Запомнить меня
Войти через:  Facebook Google Twitter Vk Yandex Mail.ru

Justice - We Are Your Friends - бас-таба, видео

Печатать
Просмотров: 386
Justice Vs. Symian - we are your friends


Here is the main bass riff. It is actually played on a synthesizer
but it is really fun to play on bass.


G-----------------------|-------------------------|
D-----------------------|----------------3h5----5-|
A-0----0----0----0--0-3-|-0----0----3--0----------|
E-----------------------|--------------------3----|

G-------------------------|----8-----8--------------|
D-------------------3-----|-------------------------|
A----------------0----3p0-|-6-----6-----------------|
E-1----1----1-------------|-------------3---3-3--3-3|

You'll have to figure out the timing for yourself, but those are the notes.

All other riffs are based around this main theme. 
Добавлено: 22.03.2012
Другие материалы по этой песне:

Страница создана 15.03.2012
http://primanota.ru/justice/we-are-your-friends-chords.htm
Привет, Гость.
Предлагаем пройти революционный курс по гитаре.
Подарок от PrimaNota.Ru, забирай!