PrimaNota.ru - самый крупный в мире бесплатный архив песенных текстов, аккордов, табулатур и нот


Justice - The Party Tthhee Ppaarrttyy - таба, видео

Регистрация Запомнить меня
Войти через:  Facebook Google Twitter Vk Yandex Mail.ru

Justice - The Party Tthhee Ppaarrttyy - таба, видео

Печатать
Просмотров: 107
Hey guys first tab here.
A few parts are a bit iffy, but whatever.
Enjoy!


Main Riff

e|------------------------------------16-17---16---------------------------|
B|------------------------------------------19--17-19-16-17----------------|
G|------------------------16-18-----------------------------18-------------|
D|---------------14-16-18--------------------------------------------------|
A|-------------------------------------------------------------------------|
E|-12------12-14-----------------------------------------------------------|

e|-------------------------------------------------------------------------|
B|-------------------------------------------------------------------------|
G|-----------------14-16-17----16-17---17----------------------------------|
D|------------14-16------------------19---18-19-16-18----------------------|
A|---------------------------------------------------19--------------------|
E|-12--14------------------------------------------------------------------|



Backing Chords

   E     F#    A     C   B
e|-0-----2-----0-----0---2---|
B|-0-----2-----2-----1---4---|
G|-1-----3-----2-----0---4---|
D|-2-----4-----2-----2---4---|
A|-2-----4-----0-----3---2---|
E|-0-----2-----0-----x---x---|

Outro Part

e|-------------------------------------------------------------------------|
B|-------------------------------------------------------------------------|
G|----------------13-11----------13-11----13-11----------------------------|
D|-------------11--------------11--------------14-11-----------------------|
A|--------11-14-----------11-14---------------------15----14----12---------|
E|-12----------------------------------------------------------------------|

Добавлено: 18.05.2012
Другие материалы по этой песне:
  • Аккорды и текст

Страница создана 18.05.2012
http://primanota.ru/justice/the-party-tthhee-ppaarrttyy-chords.htm
Привет, Гость.
Предлагаем пройти революционный курс по гитаре.
Подарок от PrimaNota.Ru, забирай!