PrimaNota.ru - самый крупный в мире бесплатный архив песенных текстов, аккордов, табулатур и нот


Justice - Let There Be Light - бас-таба, видео

Регистрация Запомнить меня
Войти через:  Facebook Google Twitter Vk Yandex Mail.ru

Justice - Let There Be Light - бас-таба, видео

Печатать
Просмотров: 195
Уроки эстрадного вокала в Санкт-Петербурге
-------------------------------------------------------------------------------
			   Let There be Light - Justice
-------------------------------------------------------------------------------

Tabbed By : bohdannyman
I'm new to tabbing, but it sounds about right. I'm pretty sure it's an octave too high, 
tuning down would be a bit of a drag in my current scenario.
Listen to the song for timing.
Tuning: E-A-D-G
0:53
G|---------4-6-9-6--6666-6-6-6-66--------9-----11-11-------------------------|
D|-----4-6-------------------------------------------------------------------|
A|-4-7----------------------------44--77---9-9-------------------------------|
E|---------------------------------------------------------------------------|
 So the main riff is:
G|6666-6-6-6-66--------------------------------------------------------------|
D|---------------------------------------------------------------------------|
A|--------------44-----------------------------------------------------------|
E|---------------------------------------------------------------------------|
  With little fills like:
                                    1:06
G|-------4h6-9p6---|--------6-9p6-|-5(hold)---1-----------------------|
D|----4h6----------|----4h6-------|-----------------------------------|
A|-4h7-------------|-4h7----------|-----------------------------------|
E|-----------------|--------------|-----------------------------------|
  At 2:12 the bass stops.
  At 2:28 it starts again:
  (Each note is played multiple times, listen to song for timing)
G|--6-8-11-12-9---5----------------------------------------------------------------|
D|--------------6------------------------------------------------------------------|
A|---------------------------------------------------------------------------------|
E|---------------------------------------------------------------------------------|
 And that's all I got, it's getting late. Wicked song.


| /  slide up
| \  slide down
| h  hammer-on
| p  pull-off
| ~  vibrato
| +  harmonic
| x  Mute note
===============================================================================
Добавлено: 27.05.2012
Другие материалы по этой песне:

Страница создана 28.02.2012
http://primanota.ru/justice/let-there-be-light-chords.htm
Привет, Гость.
Предлагаем пройти революционный курс по гитаре.
Подарок от PrimaNota.Ru, забирай!