PrimaNota.ru - самый крупный в мире бесплатный архив песенных текстов, аккордов, табулатур и нот


Justice - 2 Minutes To Live - таба, видео

Регистрация Запомнить меня
Войти через:  Facebook Google Twitter Vk Yandex Mail.ru

Justice - 2 Minutes To Live - таба, видео

Печатать
Просмотров: 91
Justice- 2 minutes to live

Tab by Christian Röder christianroeder@freenet.de

Intro:
E|------------------------------------------------|
H|------------------------------------------------|
G|------------------------------------------------|
D|-1-2-1-----1-2-1-------1-2-1------7-------------|
A|-------2-1-------2-1-0-------2-1--7-------------|
E|----------------------------------5-------------|

E|------------------------------------------------|
H|------------------------------------------------|
G|-1-2-1-----1-2-1-------1-2-1--------------------|
D|-------2-1-------2-1-0-------2-1--7-------------|
A|----------------------------------7-------------|
E|----------------------------------5-------------|

E|------------------------------------------------|
H|------------------------------------------------|
G|------------------------------------------------|
D|-3-3-3-3-3-3-3-3-3-3-3-3---2-2-2-2-2-2----------|
A|-3-3-3-3-3-3-3-3-3-3-3-3---2-2-2-2-2-2----------|
E|-1-1-1-1-1-1-1-1-1-1-1-1---0-0-0-0-0-0----------|

Verse:
E|------------------------------------------------|
H|------------------------------------------------|
G|------------------------------------------------|
D|-3-3-3-3-3-3--2-2-2-2--3-3-3-3-3-3--2-2-2-2-----|
A|-3-3-3-3-3-3--2-2-2-2--3-3-3-3-3-3--2-2-2-2-----|
E|-1-1-1-1-1-1--0-0-0-0--1-1-1-1-1-1--0-0-0-0-----|

E|------------------------------------------------|
H|------------------------------------------------|
G|------------------------------------3-------:---|
D|-3-3-3-3-3-3--2-2-2-2--3-3-3-3-3-3--3-------:---|
A|-3-3-3-3-3-3--2-2-2-2--3-3-3-3-3-3--1-----------|
E|-1-1-1-1-1-1--0-0-0-0--1-1-1-1-1-1--------------|

Chorus:
E|------------------------------------------------|
H|------------------------------------------------|
G|-----5-4-8-7-10-9------5-4-8-7-10-9-------------|
D|-5-4-5-4-8-7-10-9--5-4-5-4-8-7-10-9-------------|
A|-5-4-3-2-6-5-8--7--5-4-3-2-6-5-8--7-------------|
E|-3-2---------------3-2--------------------------|

E|------------------------------------------------|
H|------------------------------------------------|
G|-----5-4-8-7-10-9--5-4------5-4-----------------|
D|-5-4-5-4-8-7-10-9--5-4-5-4--5-4-5-4-------------|
A|-5-4-3-2-6-5-8--7--3-2-5-4--3-2-5-4-------------|
E|-3-2-------------------3-2------3-2-------------|

Verse:
E|------------------------------------------------|
H|------------------------------------------------|
G|------------------------------------------------|
D|-3-3-3-3-3-3--2-2-2-2--3-3-3-3-3-3--2-2-2-2-----|
A|-3-3-3-3-3-3--2-2-2-2--3-3-3-3-3-3--2-2-2-2-----|
E|-1-1-1-1-1-1--0-0-0-0--1-1-1-1-1-1--0-0-0-0-----|

E|------------------------------------------------|
H|------------------------------------------------|
G|------------------------------------3-------:---|
D|-3-3-3-3-3-3--2-2-2-2--3-3-3-3-3-3--3-------:---|
A|-3-3-3-3-3-3--2-2-2-2--3-3-3-3-3-3--1-----------|
E|-1-1-1-1-1-1--0-0-0-0--1-1-1-1-1-1--------------|

Chorus:
E|------------------------------------------------|
H|------------------------------------------------|
G|-----5-4-8-7-10-9------5-4-8-7-10-9-------------|
D|-5-4-5-4-8-7-10-9--5-4-5-4-8-7-10-9-------------|
A|-5-4-3-2-6-5-8--7--5-4-3-2-6-5-8--7-------------|
E|-3-2---------------3-2--------------------------|

E|------------------------------------------------|
H|------------------------------------------------|
G|-----5-4-8-7-10-9--5-4------5-4-----------------|
D|-5-4-5-4-8-7-10-9--5-4-5-4--5-4-5-4-------------|
A|-5-4-3-2-6-5-8--7--3-2-5-4--3-2-5-4-------------|
E|-3-2-------------------3-2------3-2-------------|

E|------------------------------------------------|
H|------------------------------------------------|
G|-----4-------3-------4---3---:------------------|
D|-2---4---2---3---2---4---3---:------------------|
A|-2---2---2---1---2---2---1----------------------|
E|----------------------------------0---4---2-----|

Verse:
E|------------------------------------------------|
H|------------------------------------------------|
G|------------------------------------------------|
D|-3-3-3-3-3-3--2-2-2-2--3-3-3-3-3-3--2-2-2-2-----|
A|-3-3-3-3-3-3--2-2-2-2--3-3-3-3-3-3--2-2-2-2-----|
E|-1-1-1-1-1-1--0-0-0-0--1-1-1-1-1-1--0-0-0-0-----|

E|------------------------------------------------|
H|------------------------------------------------|
G|------------------------------------3-------:---|
D|-3-3-3-3-3-3--2-2-2-2--3-3-3-3-3-3--3-------:---|
A|-3-3-3-3-3-3--2-2-2-2--3-3-3-3-3-3--1-----------|
E|-1-1-1-1-1-1--0-0-0-0--1-1-1-1-1-1--------------|

Chorus:
E|------------------------------------------------|
H|------------------------------------------------|
G|-----5-4-8-7-10-9------5-4-8-7-10-9-------------|
D|-5-4-5-4-8-7-10-9--5-4-5-4-8-7-10-9-------------|
A|-5-4-3-2-6-5-8--7--5-4-3-2-6-5-8--7-------------|
E|-3-2---------------3-2--------------------------|



E|------------------------------------------------|
H|------------------------------------------------|
G|-----5-4-8-7-10-9--5-4------5-4-----------------|
D|-5-4-5-4-8-7-10-9--5-4-5-4--5-4-5-4-------------|
A|-5-4-3-2-6-5-8--7--3-2-5-4--3-2-5-4-------------|
E|-3-2-------------------3-2------3-2-------------|

E|------------------------------------------------|
H|------------------------------------------------|
G|-----4-------3-------4---3---:------------------|
D|-2---4---2---3---2---4---3---:------------------|
A|-2---2---2---1---2---2---1----------------------|
E|----------------------------------0---4---2-----|

Bridge:
E|------------------------------------------------|
H|------------------------------------------------|
G|------------------------------------------------| 16 times
D|------------------------------------------------|
A|-3-3-3-3-3-3-3-3-4-4-4-4-1-1-1-1----------------|
E|------------------------------------------------|

During solo:

E|------------------------------------------------|
H|------------------------------------------------|
G|------------------------------------------------|
D|-3-3-3-3-3-3--2-2-2-2--3-3-3-3-3-3--2-2-2-2-----|
A|-3-3-3-3-3-3--2-2-2-2--3-3-3-3-3-3--2-2-2-2-----|
E|-1-1-1-1-1-1--0-0-0-0--1-1-1-1-1-1--0-0-0-0-----|

E|------------------------------------------------|
H|------------------------------------------------|
G|------------------------------------3-----------|
D|-3-3-3-3-3-3--2-2-2-2--3-3-3-3-3-3--3-----------|
A|-3-3-3-3-3-3--2-2-2-2--3-3-3-3-3-3--1-----------|
E|-1-1-1-1-1-1--0-0-0-0--1-1-1-1-1-1--------------|

Chorus:
E|------------------------------------------------|
H|------------------------------------------------|
G|-----5-4-8-7-10-9------5-4-8-7-10-9-------------|
D|-5-4-5-4-8-7-10-9--5-4-5-4-8-7-10-9-------------|
A|-5-4-3-2-6-5-8--7--5-4-3-2-6-5-8--7-------------|
E|-3-2---------------3-2--------------------------|

E|------------------------------------------------|
H|------------------------------------------------|
G|-----5-4-8-7-10-9--5-4------5-4-----------------|
D|-5-4-5-4-8-7-10-9--5-4-5-4--5-4-5-4-------------|
A|-5-4-3-2-6-5-8--7--3-2-5-4--3-2-5-4-------------|
E|-3-2-------------------3-2------3-2-------------|

E|------------------------------------------------|
H|------------------------------------------------|
G|-----4-------3-------4---3---:------------------| 2 times 
D|-2---4---2---3---2---4---3---:------------------| 
A|-2---2---2---1---2---2---1----------------------|
E|----------------------------------0---4---2-----|
Добавлено: 01.07.2012
Другие материалы по этой песне:
  • Аккорды и текст

Страница создана 01.07.2012
http://primanota.ru/justice/2-minutes-to-live-chords.htm
Привет, Гость.
Предлагаем пройти революционный курс по гитаре.
Подарок от PrimaNota.Ru, забирай!