PrimaNota.ru - самый крупный в мире бесплатный архив песенных текстов, аккордов, табулатур и нот


Just Surrender - You Tell A Tale - текст песни, таба, видео

Регистрация Запомнить меня
Войти через:  Facebook Google Twitter Vk Yandex Mail.ru

Just Surrender - You Tell A Tale - текст песни, таба, видео

Печатать
Просмотров: 170
Уроки эстрадного вокала в Санкт-Петербурге
Just Surrender
You Tell A Tale
2005
Submitted by: paramore_fans@yahoo.com

Tuning: Standard EADGBe

Key: E

Chords used:
A9 -  x02200 or A - x02220
B9 -  x24400 or B - x24442
C#m - x46654
E -   022100 or 079900


Intro: A9----B9
C#m---B (x4)
A9--B9--C#m (x2)


Guitar 2: A9------|B9
e|-------|-4-4-4--|
B|-0-0-0-|-0-0-0--|
G|-2-2-2-|-2-2-2--|
D|-2-2-2-|-2-2-2--|
A|-0-0-0-|-0-0-0--|
E|-------|--------|
    x3


Guitar 2: C#m---B
e|---------|-------|
B|---------|-------|
G|-13-11-9-|-4-4-4-|
D|--x--x-x-|-4-4-4-| x4
A|-11--9-7-|-2-2-2-|
E|---------|-------|
    x3


Guitar 2: A9--B9-------------------------------|C#m
e|-4-----5p4-----7-----5p4-----4-4-4-4-4-4-4---|
B|---5-------5-----5-------5-------------------|
G|-----4-------4-----4-------4-----------------|
D|---------------------------------------------| x2
A|---------------------------------------------|
E|---------------------------------------------|


Verse 1:
C#m             A9
  I search your words
         B9              C#m
Fish for breaks in every line
               A9              B9
You say you'll paint a picture in my mind
    C#m
I'm paying attention to details
    A9             B9             C#m
And searching for any misleading ideas
You tell a tale
    A9              B9        A9
One grand enough to carry me away


Pre Chorus;

Guitar 2: A9
e|-----7-7-----7-7-----7-7--4-4-4-|
B|-4h5-----4h5-----4h5------5-5-5-|
G|--------------------------------|
D|--------------------------------|
A|--------------------------------|
E|--------------------------------|


Chorus:
E                            C#m
  'Cause I know where you've been
                       A9
And I know what you've done with him
  B9                      E
I hope it's worth what we lost
                             C#m
Take your time with your goodbyes
                        A9
'cause this will be the last time
        B9
I stand by with eyes closed tight


Post Chorus:

Guitar 2: C#m---B
e|---------|-------|
B|---------|-------|
G|-13-11-9-|-4-4-4-|
D|--x--x-x-|-4-4-4-| x2
A|-11--9-7-|-2-2-2-|
E|---------|-------|
    x3


Verse 2:
C#m
  And it's hard to know
A9         B9                  C#m
  If I had caught this months ago
I could have faced myself
A9           B9          C#m
Saved myself from this disease
It's killing me faster
     A9           B9             C#m
With every single second you are gone
                              A9
You needed an answer but when I said, "yes"
  B9            A9
I meant "forevermore!"


(Repeat Pre Chorus and Chorus)


Interlude: C#m---


Bridge: Silence and the best switch from 3/4 to 4/4
E
  I look into your eyes
C#m
  and see that your colors changing
A9            B9
  I wish that I could
            E
change with you
and when you said forever
C#m
  did you mean it to be true?
A9           B9
  or was it another tale from you?
(Repeat x4)


Guitar 2: while doing bridge in 2nd time only
         E                C#m
e|---4-----4-----4-|---4-----2-0-2-0-|
B|-----5-----5-----|-----5-----------|
G|-4-----4-----4---|-4-----4---------|
D|-----------------|-----------------|
A|-----------------|-----------------|
E|-----------------|-----------------|

         A                B
e|---4-----4-----4-|---4-----2-0-2-4-|
B|-----5-----5-----|-----5-----------|
G|-4-----4-----4---|-4-----4---------|
D|-----------------|-----------------|
A|-----------------|-----------------|
E|-----------------|-----------------|


End on C#m
Добавлено: 08.10.2013
Другие материалы по этой песне:
  • Аккорды и текст

Страница создана 07.04.2012
http://primanota.ru/just-surrender/you-tell-a-tale-chords.htm
Привет, Гость.
Предлагаем пройти революционный курс по гитаре.
Подарок от PrimaNota.Ru, забирай!