PrimaNota.ru - самый крупный в мире бесплатный архив песенных текстов, аккордов, табулатур и нот


Just Surrender - She Broke My Heart, So I Broke His Jaw - аккорды и текст, таба, видео

Регистрация Запомнить меня
Войти через:  Facebook Google Twitter Vk Yandex Mail.ru

Just Surrender - She Broke My Heart, So I Broke His Jaw - аккорды и текст, таба, видео

Печатать
Просмотров: 148
She Broke My Heart, So I Broke His Jaw
Just Surrender
Just Surrender
She Broke My Heart So I Broke His Jaw
If These Could Talk
2005
Submitted by: paramore_fans@yahoo.com

Key: F#

Tuning: Standard EADGBe

Chords used:
Ebm - x68876
B -   x24442
F# -  244322
C# -  x46664
G#m - 466444
Bb -  x13331 or x13131


Intro: Ebm-C#-Ebm x4, B--C#, Ebm-C#-Ebm x2


Verse 1:
B
  Take apart every
                Ebm
piece of this machine
Leave my broken
             B
body in the street
Ill stammer drunk and
       Ebm
hallow to
     C#
your doorstep
B
  You'll say
Ebm
  Don't even
breath his name
B
  You'll say
Ebm         C#(hold)
  Don't you dare


Chorus:
Ebm
  One shot is all
             B
that I would need
Tonight I'll have
            Abm
you on your knees
              B
I'll make you see
(I'll have
you begging
C#
for his
       Ebm
life tonight)
One shot is
             B
all I'd ever need
Tonight I'll have
            Abm
you on your knees
                B    C#
I'll make you believe


Interlude: Ebm-C#-Ebm x2


Verse 2:
Ebm             B
  And now you'll see
         C#
Just how desperate
           Bb
we both can be
Ebm              B
  And now you'll see
     C#
That you could
never live
Bb
  Live without me


(Repeat Chorus)


Interlude: B--
           Ebm--B--G#m--B-Bb x2, Ebm-C#-Ebm x2


Guitar 2: Palm muted
e|-------------------------2---1---|-----------------1h2-1h2-1h2-1h2-
B|-2h4-2h4-2h4-2h4-2h4-2h4---2---2-|-2h4-2h4-2h4-2h4-----------------
G|---------------------------------|---------------------------------
D|---------------------------------|--------------------------------- x2
A|---------------------------------|---------------------------------
E|---------------------------------|---------------------------------
                x3


Guitar 3: will enter at third time
e|-11------9----|---------------|-11p9h11-
B|-----11-----9-|-11----------9-|---------
G|--------------|-----11--10----|---------
D|--------------|---------------|---------
A|--------------|---------------|---------
E|--------------|---------------|---------
       x3


(Repeat Chorus twice)
Добавлено: 25.09.2013
Другие материалы по этой песне:
  • Аккорды и текст

Страница создана 22.02.2012
http://primanota.ru/just-surrender/she-broke-my-heart-so-i-broke-his-jaw-chords.htm
Привет, Гость.
Предлагаем пройти революционный курс по гитаре.
Подарок от PrimaNota.Ru, забирай!