PrimaNota.ru - самый крупный в мире бесплатный архив песенных текстов, аккордов, табулатур и нот


Just Surrender - If These Streets Could Talk - аккорды и текст, видео

Регистрация Запомнить меня
Войти через:  Facebook Google Twitter Vk Yandex Mail.ru

Just Surrender - If These Streets Could Talk - аккорды и текст, видео

Печатать
Просмотров: 150
If These Streets Could Talk
Just Surrender
Just Surrender
If These Streets Could Talk
2005
submitted by: paramore_fans@yahoo.com

Tuning: Standard EADGBe

Tracklist
1.) I Can Barely Breathe
2.) Of All We've Known
3.) Tell Me Everything
4.) In Your Silence
5.) Our Work Of Art
6.) What We've Become
7.) You Tell A Tale
8.) Forgiven Not Forgotten
9.) Is There No Truth In Beauty?
10.) She Broke My Heart, So I Broke His Jaw

_____________________________________

1.) I Can Barely Breathe

Key: C#

Chords used:
F# -   244322
G# -   466544
Bbm -  x13321
C#/F - 143xxx
Ebm -  x68876
C# -   x46664


Intro: F#--G#--Bbm-- x2

Verse 1:
F#
  Tell me girl what
were you thinking?
Hit me with something
that will make
     G#
this worth my time
Bbm
   Take it back take
it all back now
Every promise I made
was just another
mistake with you
F#
  Tell the truth if
you think that
you can take it
                G#
But I know, you wont
Bbm
   I never felt
so all alone
But when it was
safe I turned
my back and the
blade came through


Refrain:
    F#
And I can barely breathe
And I can barely breathe
And I can barely breathe


Chorus:
F#                    G#
  Stand on top of the roof top
         Bbm
wondering Is it good?
Yea it's good for jumping
F#                G#
  Take back every word you
           Bbm
said Cause I can barely breathe
(and I can barely breathe)


Verse 2:
F#
  Tell me now can
you still taste him?
Cause you know you'll
never wash your
      G#
hands of this
Bbm
   Take it back take
it all back now
Every drunken kiss that
landed on his
lips from you
F#
  Make a move if you
think that you can make it
                G#
But I know, you wont
Bbm
   I never felt
so all alone
But when it was
safe I turned
my back and the
blade came through


(Repeat Refrain and Chorus twice)


Interlude: F#-G#- x4, Bbm--Bbm-


Bridge:
F#   G#   F#    G#
Hold your tounge
         F#
You know nothing
 G#
about this
      F#
Don't even
G#    Bbm
get involved
I hope you watch
as I'm falling down
Because you are the
reason I'd hit
the ground
F#        C#/F
You could be the
Ebm      C#
one that breaks me
F#       C#/F   Ebm
You will be the one
     C#        Bbm
that breaks me now
I hope you know that
every tear you cried
Is a memory left from
when you watch me die
You know i'll
F#         C#/F
haunt your dreams
Ebm               C#
   With all these pieces
     F#      C#/F
you stole of me
Ebm C# Bbm---
    Of me


(Repeat Refrain and Chorus twice)

____________________________________

2.) Of All We've Known

Key: Eb

Chords used:
Cm - x35543
G# - 466544
Eb - x68886
Bb - x13331
G -  320033


Intro:
               G#                        Cm                Eb
e|-----------------------------|---------------------|---------|
B|-----4---3--3----4-3---4-3---|-----4---3--3----4-3-|---4-3---|
G|---3---3-3--3--------------3-|---3---3-3--3--------|-------3-|
D|---------x--x----------------|---------x--x--------|-1-------| x2
A|---------x--x----------------|-3-------3--3--3-----|---------|
E|-4-------4--4--4-----4-------|---------------------|---------|


Verse 1:
     G#
It's 9 o'clock and it's
getting dark and
Cm
I can't see the road
           G#
I flash my headlights
into the dark night
  Cm
I swear we'll make
             Eb
it on our own


Refrain:
      G#
We're older than
we used to be
Bb
this town holds
           Cm
no more to see
      G#
we're fading in
we're fading out
      Bb
until I hear you say


Chorus:
             Cm
Come on come on
Hey kid this is
G#
far too important
    Eb           Bb  G#
for you to understand
         Bb   Cm
She says be a man
you know this is
G#
what we both wanted
     Eb
It's time for
          Bb G#
us to let go
   Bb        G#
of all we've known


Verse 2:
     G#
It's 1 a.m and we're
              Cm
alone again I reach
out for the sky
        Eb     G#
My mind keeps playing
all the words
you're saying
           Cm
I'm always wrong
                  Eb
when you are right


(Repeat Refrain and Chorus except last line)


   Bb
of all we've known


Interlude: Cm--G#--Bb--G x2 G#--Bb


(Repeat Chorus except last line)


Outro:
       Cm         G#
Of all we've known
       Bb         G
of all we've known
       Cm         G#
Of all we've known
(Hey kid this
   G#
is far to important)
       Bb
Of all we've known
                  G
(For you to understand)
              G#(hold)
She says be a man

________________________________

3.) Tell Me Everything

Key: Eb

Chords used:
G# - 466544
Bb - x13331
Cm - x35543
Eb - x68886


Intro: Cm

Guitar 2:
e|-----------------|
B|---3-4-3---3-4-3-|
G|-5-------5-------|
D|-----------------| x4
A|-----------------|
E|-----------------|


Verse 1:
              G#
Just one more hour
and I'll know the truth that separates
                   Bb
the right From all the
Cm
wrong feelings that
You have about me your
                     G#
grace is distracting me
White out the memories
                                   Bb
of each sarcastic shot you took at me
     Cm
With your hurtful tones
               Eb
and biting melodies
              G#
Just one more outburst
and I'm leaving you like
you left me one year ago
Bb  Cm
and I know that this
                               G#
could never be an apology from you
A meaning buried
under shuttered breathing
               Bb       Cm
Its taking too long for me to spit it out


Chorus:
             G#         Bb   Cm
Tell me everything will be alright
                    G#       Bb   Cm
Close your eyes and dream of me tonight
                 G#         Bb    Cm
Tell me that you won't just fade away
                           G#
Cross my heart and hope to die
             Bb             Eb
tonight I'll dream my pain away


Verse 2:
Cm(hold)
  I'll let the lack of
                G#(hold)
words speak for me
the way I am I can't
                 Bb
express or understand
Cm
  I'll take the time
                G#
now to make you see
    Bb
you see


(Repeat Chorus 1)


Interlude; Cm--Bb--G# (x2)


Bridge:
G#                   Bb
  I see through your lies
        G#                 Bb
they're bleeding from your eyes


Chorus 2:
             G#         Bb   Cm
Tell me everything will be alright
                    G#       Bb   Cm
Close your eyes and dream of me tonight
                 G#         Bb    Cm
Tell me that you won't just fade away
                           G#
Cross my heart and hope to die
             Bb             Cm
tonight I'll dream my pain away


(Repeat Chorus 1)

___________________________________

4.) In Your Silence

Key: Eb

Chords used:
Cm -   x35543
Bb/D - x587xx
Eb -   x68886
G# -   466544
Bb -   x13331


Intro: Cm--Bb/D-Eb-G#--Bb (x2)

Guitar 2: Very fast!!! Cm--Bb/D-Eb
e|---------------3--------------------|
B|-----------4-------4----------------|
G|-5-5-5-5-5---3---3---4-7-7-7--8-8-8-|
D|-5-5-5-5-5-------------8-8-8--8-8-8-|
A|-3-3-3-3-3-------------5-5-5--6-6-6-|
E|------------------------------------|

Guitar 2: G#--Bb
e|-----------3---6-4-3---------|
B|-------------4-------4-------|
G|-----------------------3-3-3-|
D|-6-6-6-6-6-------------3-3-3-|
A|-6-6-6-6-6-------------1-1-1-|
E|-4-4-4-4-4-------------------|


Verse 1:
Cm
  Tell me dear
        G#
How can I make this more clear
     Cm               G#
When I say this is forever
                       Cm
(When I say this is forever)
                   G#
And how is that so wrong
      Cm                         G#
Is it too much to ask to not be alone
 Eb
alone


Guitar 2: very fast!!! Eb in "alone"
e|-6-----------|
B|---4p3h4p3---|
G|-----------3-|
D|-------------| x4
A|-------------|
E|-------------|


Cm                 G#
  So what did I do wrong
     Cm                           G#
I'll take it back and start over again (again)


Chorus:
Eb                        Cm
  Well I fall asleep with you
               G#
And I wake up alone, and unwanted
Bb
In your silence
Eb                      Cm
  And I wish I could destroy you
                       G#
But instead I'll just adore you
              Bb
And know that you were silent


Guitar 2: in "and I wish I could destroy you..."
e|-6-----------|
B|---4p3h4p3---|
G|-----------3-|
D|-------------| x4
A|-------------|
E|-------------|


Verse 2:
Cm                      G#
  I'll cross my fingers tight
     Cm               G#
And sleep to dream of you
             Cm(silent) Bb
Cause when I wake
  G#
I know I'll be alone
    Cm           Bb G#(palm mute)
But its worth it for you...for you


(Repeat Chorus)
(Repeat Intro x4)


Bridge: Palm mute and silent
Eb     Cm           G#            Bb
  I'd sleep through any dream for you


With drums already: But still palm mute
Eb    Cm          G#
  I'd wake though anything...
     Bb
Your everything to me (you're everything to me)


Guitar 2: in "I wake though everything..."
e|-------11-------11-|
B|-8h9p8----8h9p8----|
G|-------------------|
D|-------------------| repeat many times
A|-------------------|
E|-------------------|


(Repeat Chorus while singing bridge in 2nd voice!!!)
(Repeat intro twice)

Cm      Bb        G#(hold)
  while I'm still waiting

_____________________________

5.) Our Work Of Art

Key: E

Chords used:
A -   x02220
B -   x24442
C#m - x46654


Intro: Silence
A
  Blood stained sheets
            C#m
What have I gotten
myself into this time?
  A
I close my eyes and
I believe you
   C#m
If I should die I'll
      B-B-B    C#m---B-B-B-C#m never leave you

B-B-B--A----B--B-B-C#m---B-B-B-C#m-B-B-B


Verse 1:
A(hold)
  I wish that I could walk away
C#m
guilt rests in my hands
A                           C#m
  I know that it is for the better
                            A
I never said that i'd compromise
between fact or fiction
C#m
  there's so much better out there
A
than you and me
        C#m
I could end this in seconds
I know it but I don't dare


Refrain:
A
  Another sentence this
all could be over
Your words are like weapons
    C#m(hold)
why can't you protect me


Chorus 1:
A
  Blood stained sheets
            C#m
What have I gotten
myself into this time?
  A
I close my eyes and
I believe you
   C#m
If I should die I'll
      B-B-B
never leave you


Verse 1:
A(hold)
  I wish that you would walk away
C#m
  red still lines your hands
A
  I know that it's
              C#m
still for the better
I never said that
           A
i'd stand aside
between you and the door
C#m
  there's nothing
better out there
A
than you and me
        C#m
I could end this in seconds
I know it but I don't dare


(Repeat  Refrain and Chorus 1)


Chorus 2:
A
  Blood stained sheets
It didn't matter when
C#m
I was calling
out your name
  A
I felt the wound
grow ever slowly
C#m
closer than you'd
ever hold me


Bridge:
C#m
  Its a work of art
                   B
the way this fell apart
was the design too
                A
faded from the start
or was the artist
just too blinded by this
C#m
  no its common sense I
              B
lack the confidence
still i'll confess all
                A      B
these things to you to you


Interlude: A(hold)---B-B-B


Verse 3:
A
  take a look at yourself
and tell me what do you see
I'd take a bullet for you
you'd put a bullet through me
C#m
  and as I lay on the floor
with this hole in my chest
how will you walk from the truth
              B-B-B         A
with all that blood on your dress
And everything that you want
is everything that I need
I would have gave it to you
                            C#m
but you'd have take it from me
and every word that you said
it brought me closer to sin
I close my eyes and pretend
its all fading


(Repeat  Refrain and Chorus 1 and Chorus 2)


Outro:
C#m
   So Why we go
B           A(hold)
If you go within

________________________________

6.) what We've Become

Key: C#

Chords used:
Bbm - x13321
Fm -  133111
F# -  244322
C# -  x46664
G# -  466544


Intro: Bbm-Fm-F# x3 C#--G#(hold)

Guitar 2:
e|----4--2--1h2p1--------1------4--2--1h2p1------|
B|-2--------------2---4------2--------------2--4-|
G|-----------------------------------------------|
D|-----------------------------------------------|
A|-----------------------------------------------|
E|-----------------------------------------------|


Verse 1:
Bbm-Fm-F#
         I'll take this
Bbm-Fm-F#
         as easy
Bbm-Fm-F#
         as I can
C#      G#(hold)
make it seem
Bbm-Fm-F#
        You'll keep me
Bbm-Fm-F#
        me guessing
Bbm-Fm-F#
        Act like you
 C#     G#(hold)
still believe


Guitar 2: Verses, Delay effect pedal
e|-------4---------2-1--------4-----1----1----|
B|----2---------2----------2------4----4----1-|
G|-3---------3----------3---------------------|
D|--------------------------------------------|
A|--------------------------------------------|
E|--------------------------------------------|


Chorus:
          F#
There's a time and
          G#
place for everything
    Bbm
The words you spoke
    G#    Fm C#
the words he said
F#
How could this
G#        Bbm
happen to me
F#
Wake up and
G#
turn around
    Bbm
You gave the flame
    G# Fm   C#
its burning out
    F#
And now you mean
G#         C#
nothing to me


Verse 2:
Bbm-Fm-F#
         and you make it
Bbm-Fm-F#
         so easy
Bbm-Fm-F#
         to just
C#    G#(hold)
walk away
Bbm-Fm-F#
         and you take me
Bbm-Fm-F#
         for granted
Bbm-Fm-F#
         As we both
C#       G#
know you have


(Repeat Chorus)


Bridge:
F#         G#
  And so replace
                Bbm
every dream you had
Find your way back
home this time
                  F#
you'll be on your own
       G#
Ill be waiting
               Bbm
there with you hope
The hopes of better
days and a love
                F#
that wont fade away
          G#
I've been feeling so
         Bbm
lost but I wont
G#     F#
let it show
  F#
Into your arms
     G#
I've fallen once again


(Repeat Chorus except last line)


G#         Bbm
nothing to me


Outro:
     F#   G# Bbm  C# G# Fm
So I wake up wake up
F#
How could this
G#        Bbm
happen to me
     F#   G# Bbm  C# G# Fm
So I wake up wake up
F#
Don't let it
G#          C#(hold)
burn out on me

___________________________________

7.) You Tell A Tale

Key: E

Chords used:
A9 -  x02200 or A - x02220
B9 -  x24400 or B - x24442
C#m - x46654
E -   022100 or 079900


Intro: A9----B9
C#m---B (x4)
A9--B9--C#m (x2)


Guitar 2:
     A9      B
e|-------|--------|
B|-0-0-0-|-0-0-0--|
G|-2-2-2-|-4-4-4--|
D|-2-2-2-|-4-4-4--|
A|-0-0-0-|-2-2-2--|
E|-------|--------|
    x3


Guitar 2:
      C#m         B
e|----------|-------------|
B|----------|-------------|
G|-6--------|-4-4-4-4-4-4-|
D|-6--6-4---|-4-4-4-4-4-4-| x4
A|-4------7-|-2-2-2-2-2-2-|
E|----------|-------------|
      x3


Guitar 2:
       A9               B9
e|-4-----5p4-----|-7-----5p4-----|
B|---5-------5---|---5-------5---|
G|-----4-------4-|-----4-------4-|
D|---------------|---------------|
A|---------------|---------------|
E|---------------|---------------|

                      C#m
e|----------------------------------------------------------|
B|-----------4-4-4-4-4-4-------------4-4-4-4-4-4------------|
G|-6-6-6-6-6-4-4-4-4-4-4-6-6-6-6-6-6-4-4-4-4-4-4---|
D|-6-6-6-6-6-------------6-6-6-6-6-6------------------------|
A|-4-4-4-4-4-------------4-4-4-4-4-4------------------------|
E|----------------------------------------------------------|

       A9               B9
e|-4-----5p4-----|-7-----5p4-----|
B|---5-------5---|---5-------5---|
G|-----4-------4-|-----4-------4-|
D|---------------|---------------|
A|---------------|---------------|
E|---------------|---------------|

                      C#m
e|----------------------------------------------------------|
B|-----------4-4-4-4-4-4-------------4-4-4-4-4-4------------|
G|-6-6-6-6-6-4-4-4-4-4-4-6-6-6-6-6-6-4-4-4-4-4-4---|
D|-6-6-6-6-6-------------6-6-6-6-6-6------------------------|
A|-4-4-4-4-4-------------4-4-4-4-4-4------------------------|
E|----------------------------------------------------------|


Verse 1:
C#m             A9
  I search your words
         B9              C#m
Fish for breaks in every line
               A9              B9
You say you'll paint a picture in my mind
    C#m
I'm paying attention to details
    A9             B9             C#m
And searching for any misleading ideas
You tell a tale
    A9              B9        A9
One grand enough to carry me away


Guitar 2:"I'm paying attention to details"
           C#m                      A
e|-----------------------|-------------2h4p2p0-----|
B|-----------4h5---------|---------------------4p0-|
G|-6-6-6-6-6-----4h6-----|-2-2-2-2-2-2-------------|
D|-6-6-6-6-6---------4h6-|-2-2-2-2-2-2-------------|
A|-4-4-4-4-4-------------|-0-0-0-0-0-0-------------|
E|-----------------------|-------------------------|
            x2

             B
e|-------------2h4p2p0-----|
B|---------------------4p0-|
G|-2-2-2-2-2-2-------------|
D|-2-2-2-2-2-2-------------|
A|-0-0-0-0-0-0-------------|
E|-------------------------|

"You tell a tale"
           C#m                      A
e|-----------------------|-------------2h4p2p0-----|
B|-----------4h5---------|---------------------4p0-|
G|-6-6-6-6-6-----4h6-----|-2-2-2-2-2-2-------------|
D|-6-6-6-6-6---------4h6-|-2-2-2-2-2-2-------------|
A|-4-4-4-4-4-------------|-0-0-0-0-0-0-------------|
E|-----------------------|-------------------------|
            x2

             B
e|-------------2h4p2p0-----|
B|---------------------4p0-|
G|-2-2-2-2-2-2-------------|
D|-2-2-2-2-2-2-------------|
A|-0-0-0-0-0-0-------------|
E|-------------------------|


Pre Chorus;

Guitar 2: A9
e|-----7-7-----7-7-----7-7--4-4-4-|
B|-4h5-----4h5-----4h5------5-5-5-|
G|--------------------------------|
D|--------------------------------|
A|--------------------------------|
E|--------------------------------|


Chorus:
E                            C#m
  'Cause I know where you've been
                       A9
And I know what you've done with him
  B9                      E
I hope it's worth what we lost
                             C#m
Take your time with your goodbyes
                        A9
'cause this will be the last time
        B9
I stand by with eyes closed tight


Post Chorus:

Guitar 2: C#m---B
e|---------|-------|
B|---------|-------|
G|-13-11-9-|-4-4-4-|
D|--x--x-x-|-4-4-4-| x2
A|-11--9-7-|-2-2-2-|
E|---------|-------|
    x3


Verse 2:
C#m
  And it's hard to know
A9         B9                  C#m
  If I had caught this months ago
I could have faced myself
A9           B9          C#m
Saved myself from this disease
It's killing me faster
     A9           B9             C#m
With every single second you are gone
                              A9
You needed an answer but when I said, "yes"
  B9            A9
I meant "forevermore!"


Guitar 2:"It's Killing Me Faster"
           C#m                      A
e|-----------------------|-------------2h4p2p0-----|
B|-----------4h5---------|---------------------4p0-|
G|-6-6-6-6-6-----4h6-----|-2-2-2-2-2-2-------------|
D|-6-6-6-6-6---------4h6-|-2-2-2-2-2-2-------------|
A|-4-4-4-4-4-------------|-0-0-0-0-0-0-------------|
E|-----------------------|-------------------------|
            x2

             B
e|-------------2h4p2p0-----|
B|---------------------4p0-|
G|-2-2-2-2-2-2-------------|
D|-2-2-2-2-2-2-------------|
A|-0-0-0-0-0-0-------------|
E|-------------------------|


"You Needed An Answer"
           C#m                      A
e|-----------------------|-------------2h4p2p0-----|
B|-----------4h5---------|---------------------4p0-|
G|-6-6-6-6-6-----4h6-----|-2-2-2-2-2-2-------------|
D|-6-6-6-6-6---------4h6-|-2-2-2-2-2-2-------------|
A|-4-4-4-4-4-------------|-0-0-0-0-0-0-------------|
E|-----------------------|-------------------------|
            x2

             B
e|-------------2h4p2p0-----|
B|---------------------4p0-|
G|-2-2-2-2-2-2-------------|
D|-2-2-2-2-2-2-------------|
A|-0-0-0-0-0-0-------------|
E|-------------------------|

(Repeat Pre Chorus and Chorus)


Interlude: C#m---


Bridge: Silence and the best switch from 3/4 to 4/4
E
  I look into your eyes
C#m
  and see that your colors changing
A9            B9
  I wish that I could
            E
change with you
and when you said forever
C#m
  did you mean it to be true?
A9           B9
  or was it another tale from you?
(Repeat x4)


Guitar 2: while doing bridge in 2nd time only
         E                C#m
e|---4-----4-----4-|---4-----2-0-2-0-|
B|-----5-----5-----|-----5-----------|
G|-4-----4-----4---|-4-----4---------|
D|-----------------|-----------------|
A|-----------------|-----------------|
E|-----------------|-----------------|

         A                B
e|---4-----4-----4-|---4-----2-0-2-4-|
B|-----5-----5-----|-----5-----------|
G|-4-----4-----4---|-4-----4---------|
D|-----------------|-----------------|
A|-----------------|-----------------|
E|-----------------|-----------------|


End on C#m

__________________________________________

8.) Forgiven Not Forgotten

Key: F#

Chords used:
Ebm -  x68876
C# -   x46664
B -    x24442
C#/F - 143xxx
G#m -  466444
Bbm -  x13321


Intro: B--C#--Ebm--C#/F-F#-G#m x2 then B

Guitar 2: Pluck them fast!!!
         B                 C#                Ebm   
     F#    G#m
e|---------9-9-9-9-|---------7-7-7-7-|---------6---6---|-----------------|
B|-7-7-7-7---------|-7-7-7-7---------|-7-7-7-7---7---7-|-7---7---9-7-6-7-|
G|-----------------|-----------------|-----------------|---6---6---------|
D|-----------------|-----------------|-----------------|-----------------| x2
A|-----------------|-----------------|-----------------|-----------------|
E|-----------------|-----------------|-----------------|-----------------|
         x2                x2                x2                 x2

              B
e|----------------------------|
B|----------------------------|
G|----------------------------|
D|----4--3h4p3------4-3h4p3-1-|
A|-2-----------4-2------------|
E|----------------------------|


Verse 1:
Ebm                 B
  I'm watching your eyes move
 C#    Ebm            break  B
slowly up and down my silho-uette
      C#            Ebm
And I wonder if you get it yet
            B
This is the last time I
C#     Ebm
crawl away on these broken knees
    B                 C#            Ebm(hold)
And don't you wish it all would be okay


Guitar 2: While doing verses
     Ebm             B           C#
e|------------|-------------|-------------|
B|------------|-------------|-------------|
G|-------6----|-------------|-------------|
D|----4-----4-|----4--3h4p3-|----4--3h4p3-| x3
A|-6----------|-2-----------|-4-----------|
E|------------|-------------|-------------|
       x2

     Ebm              B                 C#          Ebm
e|------------|-2---2---1---1---|-2---2---1---1---|----|
B|------------|---2---2---2---2-|---2---2---2---2-|----|
G|-------6----|-----------------|-----------------|-8--|
D|----4-----4-|-----------------|-----------------|-8--|
A|-6----------|-----------------|-----------------|-6--|
E|------------|-----------------|-----------------|----|
      x2              x2                x2


Chorus:
B           C#             Ebm C#/F
  Promise me you'll forget me
    F#          G#m     B
You said as you walked away
B               C#               Ebm C#/F
  Don't hold on please let go of me
    F#         G#m     B(hold)
You make it so hard to leave


Guitar 2: In Chorus, do the intro riff


Verse 2:
Ebm          B
  And I cant breath without you
C#       Ebm            break B
here for fear Ill catch your  scent
       C#            Ebm
And we both know how bad I get I
      B          C#        Ebm
don't do well on dwell and change
                    B
Don't you know that three small
            C#             Ebm(hold)
words could make this all okay


(Repeat Chorus but in leave don't hold)


Bridge:

Growl:
    Bbm      Ebm
You promised me
       C#/F     F#    B
You'll never forget me
    Bbm      Ebm
You promised me
       C#/F     F#
You'll never forget


Interlude: do bridge chords
e|-9-----9-----9---|
B|---6-7---6-7---7-|
G|-----------------|
D|-----------------| repeat many times
A|-----------------|
E|-----------------|


then
e|---------9-9-9-9-|
B|-7-7-7-7---------|
G|-----------------|
D|-----------------|
A|-----------------|
E|-----------------|
         x2


(Repeat Chorus)

______________________________________

9.) Is There No Truth In Beauty?

Key: C#

Tuning: Standard EADGBe

Chords used:
C# -  x46664
G# -  466544
Bbm - x13321
F# -  244322
Ebm - x68876
F -   133211


Intro: Bbm-C#-F#-- x2


Verse 1:
Bbm           C#   F#
  This is how it's been
Bbm           C#      F#
  This is how it will be
Bbm            C#
  And when you wake
        F#
up with him
Bbm        C#          F#
  Remember when it was me


Refrain:
         G#
And I'll always will
               F#
be waiting for you
      G#
And I know that you
           F# G#
will never see


Chorus:
       Bbm          F#
That I can't break away
           C#
from these chains
      G#
to my heart
    Bbm         F#
The further you push
       C#         G#
me the closer you are
Bbm
  Maybe I should
F#
try to let go
C#
  Maybe I should
G#           F#
try to walk away
There's nothing
G#
left to say


Interlude: Bbm-C#-F#-- x2


Verse 2:
Bbm        C#     F#
  Do you remember when
Bbm           C#
  You used to laugh
           F#
there with me?
Bbm
  And now I've
C#         F#
become the joke
Bbm
  A punchline's
C#         F#
all I will be


(Repeat Refrain and Chorus)


Bridge:
Ebm
  You'll be waiting for
    F
the rest of your life
        F#
Just so you
         G#    Bbm
can finally be sad
    F#
But words don't mean
  G#
a thing but I'll
Ebm      G# F#
say them anyway
   G#
Anyway yeah


(Repeat Chorus twice)


Outro:
F#              G#
  Cause I can't break away

________________________________

10.) She Broke My Heart So I Broke His Jaw

Key: F#

Chords used:
Ebm - x68876
B -   x24442
F# -  244322
C# -  x46664
G#m - 466444
Bb -  x13331 or x13131


Intro: Ebm-C#-Ebm x4, B--C#, Ebm-C#-Ebm x2


Verse 1:
B
  Take apart every
                Ebm
piece of this machine
Leave my broken
             B
body in the street
Ill stammer drunk and
       Ebm
hallow to
     C#
your doorstep
B
  You'll say
Ebm
  Don't even
breath his name
B
  You'll say
Ebm         C#(hold)
  Don't you dare


Chorus:
Ebm
  One shot is all
             B
that I would need
Tonight I'll have
            G#m
you on your knees
              B
I'll make you see
(I'll have
you begging
C#
for his
       Ebm
life tonight)
One shot is
             B
all I'd ever need
Tonight I'll have
            G#m
you on your knees
                B    C#
I'll make you believe


Interlude: Ebm-C#-Ebm x2


Verse 2:
Ebm             B
  And now you'll see
         C#
Just how desperate
           Bb
we both can be
Ebm              B
  And now you'll see
     C#
That you could
never live
Bb
  Live without me


(Repeat Chorus)


Interlude: B--
           Ebm--B--G#m--B-Bb x2, Ebm-C#-Ebm x2


Guitar 2: Palm muted
e|-------------------------2---1---|-----------------1h2-1h2-1h2-1h2-|
B|-2h4-2h4-2h4-2h4-2h4-2h4---2---2-|-2h4-2h4-2h4-2h4-----------------|
G|---------------------------------|---------------------------------|
D|---------------------------------|---------------------------------| x2
A|---------------------------------|---------------------------------|
E|---------------------------------|---------------------------------|
                x3


Guitar 3: will enter at third time
e|-11------9----|---------------|-11p9h11-|
B|-----11-----9-|-11----------9-|---------|
G|--------------|-----11--10----|---------|
D|--------------|---------------|---------|
A|--------------|---------------|---------|
E|--------------|---------------|---------|
       x3


(Repeat Chorus twice)
Добавлено: 18.10.2013
Другие материалы по этой песне:
  • Аккорды и текст

Страница создана 18.10.2013
http://primanota.ru/just-surrender/if-these-streets-could-talk-chords.htm
Привет, Гость.
Предлагаем пройти революционный курс по гитаре.
Подарок от PrimaNota.Ru, забирай!