PrimaNota.ru - самый крупный в мире бесплатный архив песенных текстов, аккордов, табулатур и нот


Just Surrender - Burning Up - таба, видео

Регистрация Запомнить меня
Войти через:  Facebook Google Twitter Vk Yandex Mail.ru

Just Surrender - Burning Up - таба, видео

Печатать
Просмотров: 195
Just Surrender
Burning Up
Phoenix
2010
Submitted by: paramore_fans@yahoo.com

Key: Eb

Tuning: Standard EADGBe

Chords used:
Eb - x68886
Cm - x35543
G# - 466544
Bb - x13331


Intro: Eb <-- Guitar Effects


Verse 1:
Could you tell me if you
Eb
ever really loved and lost
    Cm
and tell was it worth it
           G#      Bb       Eb
cause when you you said goodbye
    Eb
And if your love was just a game then
Cm
who's the one to take the blame when
G#              Bb      Eb
you, you can't sleep at night


Chorus 1:
Cause deep inside I'm
        Eb
burning up from you
You let me down so
     Cm
many times it's true
You play with fire and
       G#
you're gonna lose
                       Bb
I'm burning up burning up
         Eb
from the thought of you
(from you)


Verse 2:
    Eb
You walk the streets at night alone
         Cm
then she calls you on the telephone
        G#              Bb      Eb
because she, she can't sleep at night


Refrain:
            Cm                G#
And now the night comes to an end
       Eb              Bb
as she grabs me by the hand
    G/B          Cm
She wants to know  do I
          G#
want come home tonight
    Eb              Bb
her bed is cold she don't
            G#--
like to be alone


Chorus 2:
Cause deep inside I'm
        Eb
burning up from you
You let me down so
     Cm
many times it's true
You play with fire and
       G#
you're gonna lose
                       Bb
I'm burning up burning up
         Eb
from the thought of you
Just take me somewhere
     Eb
far away from here
Tell that room where
        Cm
I won't show my fears
                    G#
I don't want you to know the truth
            Bb
I'm burning up burning up
         Eb
from the thought of you


Guitar Solo: Cm--G#--Eb--Bb--Cm--G#--Eb--Bb-G/B-|
Cm--G#--Eb--Bb--G#--Bb--G#----------------------|(hold)


Guitar 2: Solo
e|-------6-4-3-------------------------6-4-3----------3-4-6---|
B|---4---------4----4---6-4-3-4----4---------4----4---------4-|
G|-3---3----------3---3----------3---3----------3---3---------|
D|------------------------------------------------------------|
A|------------------------------------------------------------|
E|------------------------------------------------------------|

e|-------6----------------------------6-4-3-------------------|
B|---4-----4-3-4----4---6-4-3-4----4---------4----4---4-3-4-6-|
G|-3---3----------3---3----------3---3----------3---3---------|
D|------------------------------------------------------------|
A|------------------------------------------------------------|
E|------------------------------------------------------------|

e|-------6-4-3-------------------------6-4-3----------3-4-6---|
B|---4---------4----4---6-4-3-4----4---------4----4---------4-|
G|-3---3----------3---3----------3---3----------3---3---------|
D|------------------------------------------------------------|
A|------------------------------------------------------------|
E|------------------------------------------------------------|

e|-3-4-6---------------------|
B|-------6---4-3-1-----------|
G|-----------------3-1-0-----|
D|-----------------------3-1-|
A|---------------------------|
E|---------------------------|


(Repeat Chorus 2)


Outro:
burning up
         Eb
from the thought of you
burning up
         Cm
from the thought of you
You play with fire and
       G#
you're gonna lose
        Bb
burning up burning up
         Eb
from the thought of you
burning up from the
Eb
thought of you
burning up
         Cm
from the thought of you
Don't want you
   G#
to know the truth
            Bb
I'm burning up burning up
                    Eb
from the thought of you


Outro: Eb(hold)

Guitar 2:
e|-1-3-1---|
B|-------4-|
G|---------|
D|---------|
A|---------|
E|---------|
Добавлено: 03.06.2013
Другие материалы по этой песне:
  • Аккорды и текст

Страница создана 03.06.2013
http://primanota.ru/just-surrender/burning-up-chords.htm
Привет, Гость.
Предлагаем пройти революционный курс по гитаре.
Подарок от PrimaNota.Ru, забирай!