PrimaNota.ru - самый крупный в мире бесплатный архив песенных текстов, аккордов, табулатур и нот


Just Like Vinyl - Sucks To Be You - таба, видео

Регистрация Запомнить меня
Войти через:  Facebook Google Twitter Vk Yandex Mail.ru

Just Like Vinyl - Sucks To Be You - таба, видео

Печатать
Просмотров: 133
Уроки эстрадного вокала в Санкт-Петербурге
SUCKS TO BE YOU by JUST LIKE VINYL

Tabbed by: JuYoung Lee (Underkhaos)
E-mail: khaossc@yahoo.com

INTRO pt1/GUITAR 1
e|-------------------------|----------------------|
B|-------------------------|----------------------|
G|-------------------------|----------------------|
D|-------------------------|----------------------|
A|-------------------------|-----------------2-2-2|
E|-2-2-0-2-2-0-2-0-2-3-0-x3|-2-2-0-2-2-0-2-0------|

INTRO pt2
e|-------------------------|-------------------------|
B|-------------------------|-------------------------|
G|-------------------------|-5-5-5-5-5-5-4-4-4-4-4-4-|
D|-------------------------|-5-5-5-5-5-5-4-4-4-4-4-4-|
A|-------------------------|-3-3-3-3-3-3-2-2-2-2-2-2-|
E|-2-2-0-2-2-0-2-0-2-3-0-x3|-------------------------|

INTRO/GUITAR 2
e|----------------------|-------------------------|
B|----------------------|-------------------------|
G|-11-10-7--6--11-10-7--|-5-5-5-5-5-5-4-4-4-4-4-4-|
D|----------------------|-5-5-5-5-5-5-4-4-4-4-4-4-|
A|-9--8--5--4--9--8--5--|-3-3-3-3-3-3-2-2-2-2-2-2-|
E|----------------------|-------------------------|

VERSE
e|-----------------------|
B|-----------------------|
G|-----------------------|
D|-----------------------|
A|-4----4----4-----------|
E|-2--0-2--0-2-0-2-3-0-x3|

E|-------------------------|
B|-------------------------|
G|-5-5-5-5-5-5-4-4-4-4-4-4-|
D|-5-5-5-5-5-5-4-4-4-4-4-4-|
A|-3-3-3-3-3-3-2-2-2-2-2-2-|
E|-------------------------|

Post-Verse ?

e|---------------------|------------------------|
B|---------------------|------------------------|
G|--------3b-----------|-*not sure if this is right*
D|-----------------4b--|------------------------|
A|---------------------|------------------------|
E|-2--2-2---2--2-2---x3|-7-5-7-5-0-2-3-2-3-5----|

REPEAT INTRO pt 2
REPEAT VERSE
REPEAT POST-VERSE

e|-------------------------------------|
B|-------------------------------------|
G|-------------------------------------|
D|-2-2--2-2--2-2--2-2--2-2--2-2--2-2---|
A|-2-2--2-2--2-2--2-2--2-2--2-2--2-2---|
E|-0-0--0-0--0-0--0-0--0-0--0-0--0-0---|

e|-------------------------------------|
B|-------------------------------------|
G|-----------------5--4--5--5/7--5--4--|
D|-2---4--5--4--2--5--4--5--5/7--5--4--|
A|-2---4--5--4--2--3--2--3--3/5--3--2--|
E|-0---2--3--2--0----------------------|

e|-------------------------------------|
B|-------------------------------------|
G|-----------------5--4--5-------------|
D|-2---4--5--4--2--5--4--5--6--3--5----|
A|-2---4--5--4--2--3--2--3--6--3--5----|
E|-0---2--3--2--0-----------4--1--3----|

e|-------------------------------------|
B|-------------------------------------|
G|-----------------5--4--5--5/7--5--4--|
D|-2---4--5--4--2--5--4--5--5/7--5--4--|
A|-2---4--5--4--2--3--2--3--3/5--3--2--|
E|-0---2--3--2--0----------------------|

e|-----------------|
B|-----------------|
G|-----------------|
D|-2---4--5--4--2--| SHUT YOUR FUCKING MOUTH!!
A|-2---4--5--4--2--|
E|-0---2--3--2--0--|

*SLOWER*
e|-------------------------------------|
B|-------------------------------------|
G|-----------------5--4--5--5/7--5--4--|
D|-2---4--5--4--2--5--4--5--5/7--5--4--|
A|-2---4--5--4--2--3--2--3--3/5--3--2--|
E|-0---2--3--2--0----------------------|

e|-------------------------------------|
B|-------------------------------------|
G|-----------------5--4--5-------------|
D|-2---4--5--4--2--5--4--5--6--3--5----|
A|-2---4--5--4--2--3--2--3--6--3--5----|
E|-0---2--3--2--0-----------4--1--3----|

e|-------------------------------------|
B|-------------------------------------|
G|-----------------5--4--5--5/7--5--4--|
D|-2---4--5--4--2--5--4--5--5/7--5--4--|
A|-2---4--5--4--2--3--2--3--3/5--3--2--|
E|-0---2--3--2--0----------------------|

e|-------------------------------------|
B|-------------------------------------|
G|-----------------5--4--5--8----------|
D|-2---4--5--4--2--5--4--5--8----------|
A|-2---4--5--4--2--3--2--3--6----------|
E|-0---2--3--2--0----------------------| 


e|-------------------------------------|
B|-------------------------------------|
G|-------------------------------------|
D|-2-2--2-2--2-2--2-2--2-2--2-2--2-2---|
A|-2-2--2-2--2-2--2-2--2-2--2-2--2-2---|
E|-0-0--0-0--0-0--0-0--0-0--0-0--0-0---|

There are probably errors near the end, will fix soon

************************************

| /   slide up
| \   slide down
| h   hammer-on
| p   pull-off
| ~   vibrato
| +   harmonic
| x   Mute note
| b   Bend
| pb  Pre-bend
| br  Bend release
| pbr Pre-bend release
| brb Bend release bend

************************************
Добавлено: 05.07.2013
Другие материалы по этой песне:
  • Аккорды и текст

Страница создана 21.06.2013
http://primanota.ru/just-like-vinyl/sucks-to-be-you-chords.htm
Привет, Гость.
Предлагаем пройти революционный курс по гитаре.
Подарок от PrimaNota.Ru, забирай!