PrimaNota.ru - самый крупный в мире бесплатный архив песенных текстов, аккордов, табулатур и нот


Just Like Vinyl - Death Of The Sheep - таба, видео

Регистрация Запомнить меня
Войти через:  Facebook Google Twitter Vk Yandex Mail.ru

Just Like Vinyl - Death Of The Sheep - таба, видео

Печатать
Просмотров: 131
Death of the Sheep – Just Like Vinyl

Tabbed by Diego Gonzalez

Notation

/  = Slide
H  = Hammer On
P  = Pull Off
B  = Bend
Br = Bend & Release
[] = Artificial Harmonic
X  = Mute note
() = Sustained Note



Guitar1
|-----------------------------------------------|
|-/8-7----7-5-----------------------------------|
|----------------4h5p4---4----------------------|
|----------------------7---7-5-4-5-4----4-------|
|-----------------------------------------3-----|
|-----------------------------------------------|
Guitar2
|-----------------------------------------------|
|-----------------------------------------------|
|-/4-2----2-------------------------------------|
|-----------1-----------------------------1-----|
|----------------2h3p2---2----------------------|
|----------------------5---5-3-2-3-2----2-------|



Lead Riff 1
|2h3p2p0-------------------------3---------3h5p3p2-2h3p21|-5-3-2-3-2--------|
|--------3h5p3---------3-----3/5---5---3-5---------------|-----------5-[4]--|
|--------------4---2h4---4-------------------------------|------------------|
|--------------------------------------------------------|------------------|
|--------------------------------------------------------|------------------|
|--------------------------------------------------------|------------------|

Rhy/Fig 1
|-------------------------------------------------------------------------|-------|
|-------------------------------------------------------------------------|-------|
|-0--0--2--2--x-4-4-x-x-4-x-x-7-x-x-7--4--4--4--4-4-4-4-x-x-4-x-x-4-x-x-4-|-4-----|
|-2--2--2--2--x-5-5-x-x-5-x-x-5-x-x-5--5--5--5--5-5-5-5-x-x-5-x-x-5-x-x-5-|-5-(x7)|
|-2--2--2--2--x-7-7-x-x-7-x-x-7-x-x-7--4--4--4--4-4-3-3-x-x-3-x-x-3-x-x-3-|-6-----|
|-0--0--0--0--x-----------------------------------------------------------|-------|



Verses Lead Riff 2
|-15----14--------------------11-----------|---------------------------------15-14br--|
|----12-----15-12----------------12-10-----|--12-12-x------------12-15-12-13----------|
|-----------------14-12----12----------11~-|--12-12-12----12-14-----------------------|
|-----------------------14-----------------|-----------14-----------------------------|
|------------------------------------------|------------------------------------------|
|------------------------------------------|------------------------------------------|

|12---------------------------------------------------|
|---15-12----------------12-15-12-13------------------|
|---------14-12----12-14----------------12-12---11-11-|
|---------------14------------------------------------|
|-----------------------------------------------------|
|-----------------------------------------------------|

Verses Rhythym Rhy/Fig 2
|-----------------------------------------------------------------|--------------|
|-----------------------------------------------------------------|--End with----|
|---7-------7------5---7p5p4h5p4-------7-------7-------5-------2--|--5-5---4-4---|
|--5-5-----5-5----5-5------------5----5-5-----5-5-----5-5-----1-1-|--5-5---5-5---|
|-7------7-------3-------------------7-------7-------3-------2----|--3-3---2-2---|
|-----------------------------------------------------------------|--------------|

Chorus is basically the same as Rhy/Fig1 just with a little scratchy variation the other 
guitar just play some octaves easy to figure out. * Palm mutes are obvious in this song :P


Breakdown 1
Brk Lead
|--------------------------------------------------------------------|
|--------------------------------------------------------------------|
|---------------------------------------------------------------8----|
|--------9-8--------------------[1]---------9-8-----8-----7-----8----|
|---7-10-----9-8-[7]------2-1----------7-10-----9-8-8-----7-----6----|
|-0-------------------0-3-----2------0--------------6-0-0-5-0-0------|
|
|Brk Rh
|--------------------------------------------------------------------|
|--------------------------------------------------------------------|
|--------------5---------------[3]------------------------------8----|
|-2------------5---------------------2--------------8-----7-----8----|
|-2------------3-------2-1-----------2--------------8-----7-----6----|
|-0----------------0-3-----2---------0--------------6-0-0-5-0-0------|

Pre-Solo
|--------15---------------------18-18----------15------------------------------|
|-11/12-(12)-12\11-11~----14/15----15---11/12-(12)-12\11-----------------------|
|---------------------------------------------------------12-----14------------|
|------------------------------------------------------------------------------|
|---------------------------------------------------------10-x-x-12-x-x-[6]----|
|------------------------------------------------------------0-0----0-0--------|


Solo (Wah)
|------------------------------------------------------------|
|------------------------------------------------------------|
|-14br-12-----14br-12-----14br-12-----14br-12----14br-12-----|
|---------14----------14----------14----------14---------14--|
|------------------------------------------------------------|
|------------------------------------------------------------|

|---------------------------------------------------------------------------------------|
|---------------------------------------------------------------------------------------|
|-------12h14-14br-12-14-12h14p12----12-14p12-------------------------------------------|
|-12h14---------------------------14----------14-12-10-12-10h12p10-9h10p9----9----------|
|-------------------------------------------------------------------------12---10-12-10-|
|---------------------------------------------------------------------------------------|

|------------------------------------------------------------------------------------|
|--------[8b]-8~-7h8p7---7-----------4-----------------------------------------------|
|----------------------9---9-8h9p8\5---5-4h5p4---4-------------5-4---4---------------|
|----------------------------------------------7---7-5-7-5-4-------7---7-5-4h5p4-----|
|-9-7~---------------------------------------------------------------------------7-6-|
|------------------------------------------------------------------------------------|

Solo (Tremolo effect)
|-----------------------------------------------|---------------------------------|
|-7-8----------------7-8------------7-8---------|---------------------------------|
|-------7-9--------------7-9--------------7-9---|---------------------------------|
|-----9-----7-9-10-----------7-9--------9-----7-|9-10~-9h10p9p7~--9p7-------------|
|--------------------------------10-------------|---------------------10-9h10p9~--|
|-----------------------------------------------|---------------------------------|

Last time end with: (All are Artificial Harmonics)
|---------------------9-10-11-12------------|
|------------10-11-12-----------------------|
|-9-10-11-12--------------------------------|
|-------------------------------------------|
|-------------------------------------------|
|-------------------------------------------|
Добавлено: 01.06.2012
Другие материалы по этой песне:

Страница создана 01.06.2012
http://primanota.ru/just-like-vinyl/death-of-the-sheep-chords.htm
Привет, Гость.
Предлагаем пройти революционный курс по гитаре.
Подарок от PrimaNota.Ru, забирай!