PrimaNota.ru - самый крупный в мире бесплатный архив песенных текстов, аккордов, табулатур и нот


Just Jinger - Baby Song - таба, видео

Регистрация Запомнить меня
Войти через:  Facebook Google Twitter Vk Yandex Mail.ru

Just Jinger - Baby Song - таба, видео

Печатать
Просмотров: 92
		   Baby Song
                           
                             By Just Jinger


Intro: B5 A G F#

 B5                                A
|---------------------------------------------------------------|
|---------------------------------------------------------------|
|---------------------------------------------------------------|
|---------------------------------------------------------------|
|----5------5-------5-------5-------4-------4-------4---5---4---|
|7------7-------7-------7-------5-------5-------5---------------|


 G                               F#                              
|---------------------------------------------------------------|
|---------------------------------------------------------------|
|---------------------------------------------------------------|
|---------------------------------------------------------------|
|----2-------2-------2---3---2-------4-------4-------4---5---4--|
|3-------3-------3---------------2-------2-------2--------------|

Vers:


 B5                                A                             
|---------------------------------------------------------------|
|---------------------------------------------------------------|
|---------------------------------------------------------------|
|---------------------------------------------------------------|
|----5------5-------5-------5-------4-------4-------4-------4---|
|7------7-------7-------7-------5-------5-------5-------5-------|


 G                               F#                             
|---------------------------------------------------------------|
|---------------------------------------------------------------|
|---------------------------------------------------------------|
|---------------------------------------------------------------|
|----2-------2-------2-------2-------4-------4-------4---5---4--|
|3-------3-------3-------3-------2-------2-------2--------------|

 B5                             F#                              
|---------------------------------------------------------------|
|---------------------------------------------------------------|
|---------------------------------------------------------------|
|---------------------------------------------------------------|
|----5------5-------5-------5-------4-------4-------4-------4---|
|7------7-------7-------7-------2-------2-------2-------2-------|



 A                              E
|---------------------------------------------------------------|
|---------------------------------------------------------------|
|---------------------------------------------------------------|
|---------------------------------------------------------------|
|----4------4-------4-------4-------2-------2-------2---------5-|
|5------5-------5-------5-------O-------O-------O-------5-h-7---|
                                                     Back to B5              


B5                 A
This song is for you love,
              G  
it is about my love,
 F#
for you girl.
B5       F#
This is, my song,
                A
about where you belong,
         E
and for how long.
B5                A    
Please don't take me wrong, well,
                  G
I'm only trying to be strong,
 F#
but for how long?
B5           A
This song is about love,
                G
for those of you who hate love,
F#
for you 'sir'.
B5          F#
This is, our song,
              A
about where we went wrong,
       E
it was so wrong, mm,
B5                     A
well please don't take me wrong,
                     G            F#
I was only trying to be strong, but for too long.

Chorus:
G               A   G                 A
Now I'm growing old, and still I stand alone,
G               A    G                A   F#
left out in the cold, with my heart of stone.

Solo: B5 A G F# B5 F# A E

G               A   G                A  F#
Now I'm growing old, with a heart of stone.


B5           A
This song is for true love,
                G
and it is about our love,
    F#       B5
for us girl.



contributed by: Brian Pedersen   brian_e_p@hotmail.com
                
Baby Song by Just Jinger.
The Tabs I have tabbed out can also be played by the Bass.
The song can befound on the album "all comes around"
I hope you will enjoy this brilliant song.
If you have any question, comments, corrections
you are welcome to mail me.
Enjoy!!
Brian





     
Добавлено: 22.06.2013
Другие материалы по этой песне:
  • Аккорды и текст

Страница создана 22.06.2013
http://primanota.ru/just-jinger/baby-song-chords.htm
Привет, Гость.
Предлагаем пройти революционный курс по гитаре.
Подарок от PrimaNota.Ru, забирай!