PrimaNota.ru - самый крупный в мире бесплатный архив песенных текстов, аккордов, табулатур и нот


Jurk - Tram 7 - аккорды и текст, видео

Регистрация Запомнить меня
Войти через:  Facebook Google Twitter Vk Yandex Mail.ru

Jurk - Tram 7 - аккорды и текст, видео

Печатать
Просмотров: 82
Tram 7
Jurk
Tab by Kip

Jurk - Tram 7


[Verse A:]

  Am      F       Dm      E
|-0-------1-------1-------0-------|
|-1-------1-------3-------0-------|
|-2-------2-------2-------1-------|
|-2-------3-------0-------2-------|
|-0-------3---------------2-------|
|---------1---------------0-------|


[Verse B:]

  Am      E       G       D       F       Am      B       E
|-0-------0--------------(2)------1-------0---------------0-------|
|-1-------0-------0------(3)------1-------0-------4-------0-------|
|-2-------1-------0-------2-------2-------2-------4-------1-------|
|-2-------2-------0-------0-------3-------2-------4-------2-------|
|-0-------------------------------3-------2-------6-------2-------|
|---------4-------3-------2-------1-------0---------------0-------|



Intro: 1x [Verse A]

[Verse A]
   't Was in tram 7
   'k Was van m'n werk op weg naar huis
   'k Zat wat te lezen
   In een boek

[Verse A]
   Toen kwam ze binnen
   Een mooie meid met donker haar
   Ze zag me zitten
   En ik haar

[Verse A]
   Haar telefoon gaat
   Ze heeft een hele mooie stem
   Ze lijkt te huilen

[Verse B]
   Dan gaat ze zitten
   Een bank of twee van mij vandaan
   Ze kijkt naar buiten
   En er gaan tranen van haar ogen
   Naar haar mondhoek
   Naar haar kin
   Op haar rooie leren jas
   Haar rechterhand gaat naar haar tas
   En pakt een zakdoek

[Verse B]
   En ik heb het echt niet meer
   of juist te pakken
   Haar sexy rooie hoge hakken
   En haar rokje en haar lippen
   En ik weet dat ze verdrietig is
   Maar God wat is ze mooi
   Zo mooi
   Zo mooi
   Zo mooi
   Zo mooi
   Zo mooi
   Zo mooi
   Zo mooi
   Zo mooi

[Verse B]
   Zo mooi zo
   Zo mooi zo
   Zo mooi zo
   Zo mooi zo

   En ik weet dat ze verdrietig is
   Ik weet dat ze verdrietig is
   Ik weet dat ze verdrietig is
   Ik weet dat ze verdrietig is

   Maar god wat is ze mooi
Добавлено: 29.08.2013
Другие материалы по этой песне:
  • Аккорды и текст

Страница создана 29.08.2013
http://primanota.ru/jurk/tram-7-chords.htm
Привет, Гость.
Предлагаем пройти революционный курс по гитаре.
Подарок от PrimaNota.Ru, забирай!