PrimaNota.ru - самый крупный в мире бесплатный архив песенных текстов, аккордов, табулатур и нот


Juris Fernandez - Minsan Lang Kita Iibigin - таба, видео

Регистрация Запомнить меня
Войти через:  Facebook Google Twitter Vk Yandex Mail.ru

Juris Fernandez - Minsan Lang Kita Iibigin - таба, видео

Печатать
Просмотров: 44
-------------------------------------------------------------------------------
                                     Minsan Lang Kita Iibigin - Juris Fernandez
-------------------------------------------------------------------------------
Tabbed by: Kennyaki Caguicla
E-mail:incbus_peach@yahoo.com

I think its 95% correct kinapa ko lang kase, just leave comments and corrections 
so we can fix it. :)
Song dedicated to Kuh Mangaban. :)
Tuning: Standard

Intro: 
Lead
  Eb            Ab/Eb           Eb              Cm/A    Bb      Gm/Bb        
e|-------------------------|------------------------|-----------------------|
B|----------------------1--|---------------------6--|--8h11-11---8\6-6h8-9--|
G|--8-7-8-7-8--3/5--1-3----|--7-8-10-10/12-12---5---|-----------------------|
D|-------------------------|------------------------|-----------------------|
A|-------------------------|------------------------|-----------------------|
E|-------------------------|------------------------|-----------------------|

Ab/Bb           Gm/Bb   Ab/Bb   Bb
e|--6-8-10-----8-10-11------------------------------------------------------|
B|---------11---------9-9-8h9p8---------------------------------------------|
G|------------------------------10------------------------------------------|
D|--------------------------------------------------------------------------|
A|--------------------------------------------------------------------------|
E|--------------------------------------------------------------------------|

Verse: 1&2

  Mahal pangako sa iyo hindi magbabago, ikaw parin ang iibigin ko
 (Minsan lamang sa buhay ko ang isang katulad mo, ako rin ba'y iniibig mo?)
        Eb      Ab/Eb           Gm              Ab      Bb
e|--------------------4------------------------3---1------------------------|
B|-----6-------------4---4-------4-6--4-----------1----1--------------------|
G|----8---8------4/5----5-5-----3----3-3--------------1-1-------------------|
D|---8---8-8-------------------5--------------------------------------------|
A|--6-----------6-----------------------------------------------------------|
E|---------------------------------------------4----------------------------|

  Kahit ikaw ay lumayo at masaktan ako, asahan na di maglalaho
 (Dinggin puso'y sumasamo,sinusumpa sayo ikaw ang tanging dalangin ko
        Eb      Ab/Eb           Gm              Ab      Bb/Ab
e|--------------------4----6p4----------------3------1----------------------|
B|-----6-------------4---4----4 ----4-6--4-------1---1---3p1----------------|
G|----8---8------4/5----5---------3----3- ------1-1--1----------------------|
D|---8---8-8---------------------5-------------------1----------------------|
A|--6-----------6------------------------------------1--1-------------------|
E|--------------------------------------------4-----------------------------|

Refrain 1:

Ang pagibig koy alay sayo lamang, kung kaya giliw dapat mong malaman
        Gm      Cm      C/E             Fm              Ab              Bb 
e|------------------------3----------------------------------------------------1------|
B|------3----------3---------1---------------1--3------4----6-4----------1-4---1------|
G|-----3--3-------3---------1-1---------1--3--------------4------5------1------3------|
D|----3--3-3-----5--------1-----------3------------------6------6-6------------3------|
A|--------------3--------------------3---------------------------------1-------1------|
E|--3-------------------------------1------------------4------------------------------|

Chorus 1:

  Minsan lang kita iibigin , minsan lang kita mamahalin
        Eb      Cm      Fm      Bb      Gm      Cm              Fm      Bb
e|----------------------------------------------------------------------------------|
B|---------------4--------1------4-4---3----------3---4-----------1-----4-4---3-----|
G|----8------------------1-----------------------3-------5-------1------------------|
D|---8---------5--------------------------------3-------5---------------------------|
A|--6---6-----3------------------1-1---1--------------3-----3-----------1-1---1--1--|
E|---------------------1----------------------3----------------1--------------------|

  Ang pagmamahal sayo'y walang hangganan, dahil ang minsan ay magpakaylan man
        Gm      Cm      C/E             Fm      Bb       
e|--------------------3------------------------------|
B|--------------3--------1------1---------1----------|
G|-----3----------------1-1----1-1-------1------3--3-|
D|----5--------5------1-------1---------3-------3-3--|
A|---5-------3----------------------------------1----|
E|--3----------------------------------1-------------| 

Lead:

e|-------------------------------6-------------------|
B|--------------8-6----------7-9---------------------|
G|--8-7-8-7-8-5-----4----7-9-------------------------|
D|---------------------------------------------------|
A|---------------------------------------------------|
E|------------------------------------------9\1------|

Verse 2 same as verse 1:
Repeat Refrain 1:
Chorus 2:


  Minsan lang kita iibigin , minsan lang kita mamahalin
        Eb      Cm      Fm      Bb              Gm      Cm      Fm      Bb
e|----------------------------------------------------------------------------------|
B|---------------4--------1------4-4---3----------3---4-----------1-----4-4---3-----|
G|----8------------------1-----------------------3-------5-------1------------------|
D|---8---------5--------------------------------3-------5---------------------------|
A|--6---6-----3------------------1-1---1--------------3----3------------1-1---1--1--|
E|---------------------1----------------------3----------------1--------------------|
 

Ang pagmamahal sayoy walang hangganan dahil ang minsan ay magpakaylan man
        Gm      Cm      C/E             Fm      Bb      Gm      Cm      Fm      Bb
e|--------------------3------------------------------||--------------------------------------|
B|--------------3--------1------1---------1----------||------3---4----------1-----4-4---3p1--|
G|-----3----------------1-1----1-1-------1------3--3-||-----3------5-------1-----------------|
D|----5--------5------1-------1---------3-------3-3--||----3------5--------------------------|
A|---5-------3----------------------------------1----||----------5----------------1-1---1----|
E|--3----------------------------------1-------------||--3----------------1------------------|

Refrain 2 : half step higher

Ang Pagibig koy alay sayo lamang kung kaya giliw dapat mong malaman
        G#m     C#m     C#/F            F#m             A               B 
e|------------------------4----------------------------------------------------2---|
B|------4----------4---------2---------------2--4------5----7-5----------2-5---2---|
G|-----4--4-------4---------2-2---------2--4--------------5------6------2------4---|
D|----4--4-4-----6--------2-----------4------------------7------7-7------------4---|
A|--------------4--------------------4---------------------------------2-------2---|
E|--4-------------------------------2------------------5---------------------------|

Chorus 3 : half step higher

Minsan lang kita iibigin, minsan lang kita mamahalin
        E       C#m     F#m     B               G#m     C#m     F#m     B
e|------------------------------------------------------------------------------------|
B|---------------5--------2------5-5---4---------4----5-----------2-----5-5---4-------|
G|----9------------------2----------------------4--------4-------2--------------------|
D|---9---------6-------------------------------4--------4-----------------------------|
A|--7---7-----4------------------2-2---2--------------4-----4-----------2-2---2--2----|
E|---------------------2----------------------4----------------2----------------------|

Ang pagmamahal sayoy walang hangganan dahil ang minsan ay magpakaylan man
        G#m     C#m                     F#m     B       G#m             C#
e|-------4----------4---------------------------------------4-----------------------|
B|------4-4------5----5-------------------2--------2-------4-4----------5-----------|
G|-----4---4----6-6-----6----------------2--------4-------5---5--------6---6--------|
D|----6---------------------------------4--------4-------6-----6------6----6--------|
A|------------4---------------------------------2--------------------4-----4--------|
E|--4----------------------------------2----------------4---------------------------|

        F#m         B           E-A/E           E       Am/E-E
e|----------------(2) ---------------------------------------------------------|
B|-------5--4------2-----------------------------------------------------------|
G|-----------4-----4-----------------------------------------------------------|
D|----4------------4-----------------------------------------------------------|
A|---4-------------2-----------------------------------------------------------|
E|--2--------------------------------------------------------------------------|

e|-----------------------------7p5---------------------------------------------|
B|----------------------2-----5-----------------12-10--------------------------|
G|--9-8-9-8-9--4/6--2-4----------------9-8-9--12---------will update :)--------|
D|-----------------------------------------------------------------------------|
A|-----------------------------------------------------------------------------|
E|-----------------------------------------------------------------------------|


Order of the song

Verse 1 
Refrain 1
Chorus 1
Verse 2 
Refrain 1
Chorus 2
Refrain 2
Chorus 3

************************************

| /   slide up
| \   slide down
| h   hammer-on
| p   pull-off
| ~   vibrato
| php pilipnas

************************************
Добавлено: 10.01.2014
Вам также может быть интересно:
Другие материалы по этой песне:
  • Аккорды и текст

Страница создана 10.01.2014
http://primanota.ru/juris-fernandez/minsan-lang-kita-iibigin-chords.htm
Привет, Гость.
Предлагаем пройти революционный курс по гитаре.
Подарок от PrimaNota.Ru, забирай!