PrimaNota.ru - самый крупный в мире бесплатный архив песенных текстов, аккордов, табулатур и нот


Juris Fernandez - Got To Believe In Magic - таба, видео

Регистрация Запомнить меня
Войти через:  Facebook Google Twitter Vk Yandex Mail.ru

Juris Fernandez - Got To Believe In Magic - таба, видео

Печатать
Просмотров: 69
GOT TO BELIEVE IN MAGIC by Juris  (Originally sung by David Pomeranz)

Tabs written and arranged by Edwin-E (in YouTube)
Blog: http://guitarplucking.blogspot.com
Facebook Page: http://facebook.com/EdwinGuitar

Video Tutorial:  http://www.youtube.com/watch?v=NbOpP8snzv4


Capo on 2nd Fret

Intro:

E|--------2--0--0--------2--0--0--------2--0--0--------------0-----|
B|-----3--3--------3--3--3--------3--3--3--------3--3--2--3-----3--|
G|--2-----2-----------------------------2-----------------------2--|
D|--------------------------------------0-----------------------0--|
A|-----------------------------------------------------------------|
E|-----------------------3-----------------------------------------|

E|-----------2-----------------3-----------------2--------0--|
B|--------3-----3-----------------3-----------3-----3-----2--|
G|-----2-----------2-----------------0-----2-----------2--2--|
D|--0-----------------------0-----------0-----------------2--|
A|-----------------------2--------------------------------0--|
E|--------------------3--------------------------------------|

Verse 1

E|-----------------------3--|
B|-----------3-----------3--|
G|-----2--2-----0-----------|
D|--4-----------------0-----|
A|--5--------------2--------|
E|--------------3-----------|
  D               G
 Take me to your heart,

E|-----------------------3--|
B|-----------3-----------3--|
G|-----2--2-----0-----------|
D|--4-----------------0-----|
A|--5--------------2--------|
E|--------------3-----------|
  D                 G
 Show me where to start,

E|--------------------2--2--0-----------------|
B|-----------2--3--5-----------------------0--|
G|-----2--2-----------------------------0-----|
D|--4--------------------------------2--------|
A|--5-----4-----2-----------------2-----------|
E|-----------------------0-----0--------------|
 D       F#m      Bm                 Em 
 Let me play the part of your first love; 

E|--------------------------|
B|--0--2--2--3--0-----------|
G|-----------------------0--|
D|--------------------2-----|
A|-----------------2--------|
E|--3-----------0-----------|  
  G                 Em
 All the stars are right,


E|-----------------2-----------2-----------------3-----------------2--------0--|
B|--0--2--2--3--3-----0--2--3-----3-----------------3-----------3-----3-----2--|
G|-----------------------------------2-----------------0-----2-----------2--2--|
D|--------------------------0-----------------0-----------0-----------------2--|
A|--------------0--------------------------2--------------------------------0--|
E|--3-----------------------------------3--------------------------------------|
 G              A                D
 Ev'ry wish is ours tonight, my love.


Verse 2


E|-----------------------3--|
B|-----------3-----------3--|
G|-----2--2-----0-----------|
D|--4-----------------0-----|
A|--5--------------2--------|
E|--------------3-----------|
 D               G
 Pity those who wait,

E|-----------------------3--|
B|-----------3-----------3--|
G|-----2--2-----0-----------|
D|--4-----------------0-----|
A|--5--------------2--------|
E|--------------3-----------|
  D                 G
 Trust in love to faith,

E|--------------------2--2--0-----------------|
B|-----------2--3--5-----------------------0--|
G|-----2--2-----------------------------0-----|
D|--4--------------------------------2--------|
A|--5-----4-----2-----------------2-----------|
E|-----------------------0-----0--------------|
  D      F#m      Bm                Em     
 Findin' out too late that they've lost it;

E|--------------------------|
B|--0--2--2--3--0-----------|
G|-----------------------0--|
D|--------------------2-----|
A|-----------------2--------|
E|--3-----------0-----------|   
 G            Em
 Never leting go,

E|-----------------2--3--2-----2-----------------3-----------------2--------0--|
B|--0--2--2--3--3-----------3-----3-----------------3-----------3-----3-----2--|
G|-----------------------------------2-----------------0-----2-----------2--2--|
D|--------------------------0-----------------0-----------0-----------------2--|
A|--------------0--------------------------2--------------------------------0--|
E|--3-----------------------------------3--------------------------------------|
  G               A                D
 They will never know the ways of love.

Chorus:


E|--5--5--5--5--5--5-----|
B|--2--2--2--2--------3--|
G|-----------------------|
D|-----------------------|
A|-----------------2-----|
E|--2--------------------|
 F#m               Bm
 Got to believe in magic,

E|--3--3--3--5--3--2--0--------2--------2--|
B|--0--0--0-----2--2-----3--5-----3-----3--|
G|-----------------------------------4--4--|
D|--------------------------------------4--|
A|--------------------------2--------------|
E|--0--------------------------------------|
  Em               A              Bm 
 Tell me how two people find each other

E|--------2--0--0-----------|
B|-----3--0--------3--3--2--|
G|--4-----------------------|
D|--------------------------|
A|--------------------------|
E|--------0-----------------|
       Em                    A
 In a world that's full of strangers;

E|-----5--5--5--5--5--5-----|
B|--2--2--2--2--2--------3--|
G|--------------------------|
D|--------------------------|
A|--------------------2-----|
E|-----2--------------------|
       F#m                Bm
 You've got to believe in magic,

E|--3--3--3--5--3--2--0-----2--------2--|
B|--0--0--0-----2--2-----3--3--3-----3--|
G|--------------------------------4--4--|
D|-----------------------------------4--|
A|--------------0-----------2-----------|
E|--0-----------------------------------|
 Em                  A             Bm
 Somethin' stronger than the moon above

E|--------2--0--0--------------------2-----------------3-----------------2--|
B|-----3--0--------3--3--2--3--5--3-----3-----------------3-----------3-----|
G|--4--------------------------------------2-----------------0-----2--------|
D|--------------------------------0-----------------0-----------0-----------|
A|--------------------0--------------------------2--------------------------|
E|--------0-----------------------------------3-----------------------------|
            Em              A              D
'Cause it's magic when two people fall in love.



Verse 3  (follow chords and tabs from verse 1)
I may never know
Why I need you so,
All I need to know is this feeling;
Handle it with care,
We were born to share this dream, my love
Repeat Chorus
Добавлено: 24.05.2016
Другие материалы по этой песне:
  • Аккорды и текст

Страница создана 23.05.2016
http://primanota.ru/juris-fernandez/got-to-believe-in-magic-chords.htm
Привет, Гость.
Предлагаем пройти революционный курс по гитаре.
Подарок от PrimaNota.Ru, забирай!