PrimaNota.ru - самый крупный в мире бесплатный архив песенных текстов, аккордов, табулатур и нот


Jurassic Pards - Mahal Ko Si Yaya - таба, видео

Регистрация Запомнить меня
Войти через:  Facebook Google Twitter Vk Yandex Mail.ru

Jurassic Pards - Mahal Ko Si Yaya - таба, видео

Печатать
Просмотров: 99
Уроки эстрадного вокала в Санкт-Петербурге
Jurassic Pards - Mahal Ko Si Yaya

Gtr 1 - Rhythm
Gtr 2 - Lead
X - Fret Hand Mute
/ - Slide Up
\ - Slide Down
P.M. - Palm Mute
h - hammer-on
p - pull-off
~ - let ring

Intro

Gtr 1 (Clean)

   Am          C              G              F
e|-0~--------XX0~-----------XX3~-----------XX1111-11------|
B|-1~--------XX1~-----------XX3~-----------XX1111-11------|
G|-2~--------XX0~-----------XX0~-----------XX2222-22------|
D|-2~--------XX2~-----------XX0~-----------XX3333-33-XXXX-|
A|-0~--------XX3~-----------XX2~-----------XX3333-33-XXXX-|
E|-----------XX-------------XX3~-----------XX--------XXXX-|

Gtr 2 (Clean)

e|----------------3--1--0---------------------------------|
B|----3--1--3~------------3------3-3/5-3-1----------------|
G|--------------------------------------------------------|
D|---------------------------------------------------3333-|
A|-------------------------------------------3333-33-3333-|
E|-------------------------------------------1111-11-1111-|
P.M.                                         .... .. 

Main Riff

Gtr 1 (Distored)

e|------------------------------------------------------------------------|
B|------------------------------------------------------------------------|
G|-------------------5-5-5-55-55-5555-------------------------------------|
D|-7-7-7-77-77-7777--5-5-5-55-55-5555--5-5-5-55-55-5555--3-3-3-33-33-3333-|
A|-7-7-7-77-77-7777--3-3-3-33-33-3333--5-5-5-55-55-5555--3-3-3-33-33-3333-|
E|-5-5-5-55-55-5555--------------------3-3-3-33-33-3333--1-1-1-11-11-1111-|

Gtr 2 (Distored)

e|----------------------------------------------------------------------------------------------|
B|----------------------------------------------------------------------------------------------|
G|-14-14-14-1414-1414\9-99/1414-12121212-1212-1212-12121212-------------------------------------|
D|-----------------------------------------------------------5-5-5-55-55-5555--3-3-3-33-33-3333-|
A|-12-12-12-1212-1212\7-77/1212-10101010-1010-1010-10101010--5-5-5-55-55-5555--3-3-3-33-33-3333-|
E|-----------------------------------------------------------3-3-3-33-33-3333--1-1-1-11-11-1111-|

Gtr 1 (Distored)

e|----------------------------------------------------------------------------|
B|----------------------------------------------------------------------------|
G|-------------------5-5-5-55-55-5555-----------------------------------------|
D|-7-7-7-77-77-7777--5-5-5-55-55-5555--5-5-5-55-55-5555--3-3-3-33-33-3333--7~-|
A|-7-7-7-77-77-7777--3-3-3-33-33-3333--5-5-5-55-55-5555--3-3-3-33-33-3333--7~-|
E|-5-5-5-55-55-5555--------------------3-3-3-33-33-3333--1-1-1-11-11-1111--5~-|

Gtr 2 (Distored)

e|--------------------------------------------------------------------------------------------------|
B|--------------------------------------------------------------------------------------------------|
G|-14-14-14-1414-1414\9-99/1414-12121212-1212-1212-12121212-----------------------------------------|
D|-----------------------------------------------------------5-5-5-55-55-5555--3-3-3-33-33-3333--7~-|
A|-12-12-12-1212-1212\7-77/1212-10101010-1010-1010-10101010--5-5-5-55-55-5555--3-3-3-33-33-3333--7~-|
E|-----------------------------------------------------------3-3-3-33-33-3333--1-1-1-11-11-1111--5~-|

Verse 1

Gtr 1 (Clean)

   Am          C              G              F
e|-0~----------0~-------------3~-------------1~-|
B|-1~----------1~-------------3~-------------1~-|
G|-2~----------0~-------------0~-------------2~-| 3x
D|-2~----------2~-------------0~-------------3~-|
A|-0~----------3~-------------2~-------------3~-|
E|----------------------------3~-------------1~-|

Gtr 2 (Clean, Start on Gtr 1, 3rd time)

e|----------------3--1--0----------------------------|
B|----3--1--3~------------3------3-3/5-3-1-----------|
G|---------------------------------------------------|
D|---------------------------------------------------|
A|----------------------------------------------3333-|
E|----------------------------------------------1111-|
P.M.                                            ....

Chorus

Gtr 1 (Distored)

e|------------------------------------------------------------------------|
B|------------------------------------------------------------------------|
G|-------------------5-5-5-55-55-5555-------------------------------------| 2x
D|-7-7-7-77-77-7777--5-5-5-55-55-5555--5-5-5-55-55-5555--3-3-3-33-33-3333-|
A|-7-7-7-77-77-7777--3-3-3-33-33-3333--5-5-5-55-55-5555--3-3-3-33-33-3333-|
E|-5-5-5-55-55-5555--------------------3-3-3-33-33-3333--1-1-1-11-11-1111-|

Gtr 2 (Distored)

e|-------------------------------------------------------------------------|
B|-------------------------------------------------------------------------|
G|-/14-14-14-1414-1414-1414/1616-17171717171717171717171717171717-19191919-| continue
D|-------------------------------------------------------------------------|
A|-/12-12-12-1212-1212-1212/1414-15151515151515151515151515151515-17171717-|
E|-------------------------------------------------------------------------|

e|-----------------------------------------------------------------------------|
B|-----------------------------------------------------------------------------|
G|-12121212121212121212121212121212-9/10-10-10-10\9-999/10-10-10-10\9-9/10-14~-| 2x
D|-----------------------------------------------------------------------------|
A|-10101010101010101010101010101010-7/8--8--8---8\7-777/8--8--8---8\7-7/8--12~-|
E|-----------------------------------------------------------------------------|

Main Riff

Gtr 1 (Distored)

e|----------------------------------------------------------------------------|
B|----------------------------------------------------------------------------|
G|-------------------5-5-5-55-55-5555-----------------------------------------|
D|-7-7-7-77-77-7777--5-5-5-55-55-5555--5-5-5-55-55-5555--3-3-3-33-33-3333--7~-|
A|-7-7-7-77-77-7777--3-3-3-33-33-3333--5-5-5-55-55-5555--3-3-3-33-33-3333--7~-|
E|-5-5-5-55-55-5555--------------------3-3-3-33-33-3333--1-1-1-11-11-1111--5~-|

Gtr 2 (Distored)

e|--------------------------------------------------------------------------------------------------|
B|--------------------------------------------------------------------------------------------------|
G|-14-14-14-1414-1414\9-99/1414-12121212-1212-1212-12121212-----------------------------------------|
D|-----------------------------------------------------------5-5-5-55-55-5555--3-3-3-33-33-3333--7~-|
A|-12-12-12-1212-1212\7-77/1212-10101010-1010-1010-10101010--5-5-5-55-55-5555--3-3-3-33-33-3333--7~-|
E|-----------------------------------------------------------3-3-3-33-33-3333--1-1-1-11-11-1111--5~-|


Verse 2

Gtr 1 (Clean)

   Am          C              G              F
e|-0~----------0~-------------3~-------------1~-|
B|-1~----------1~-------------3~-------------1~-|
G|-2~----------0~-------------0~-------------2~-| 3x
D|-2~----------2~-------------0~-------------3~-|
A|-0~----------3~-------------2~-------------3~-|
E|----------------------------3~-------------1~-|

Gtr 2 (Clean, Start on Gtr 1, 3rd time)

e|----------------3--1--0----------------------------|
B|----3--1--3~------------3------3-3/5-3-1-----------|
G|---------------------------------------------------|
D|---------------------------------------------------|
A|----------------------------------------------3333-|
E|----------------------------------------------1111-|
P.M.                                            ....

Chorus

Gtr 1 (Distored)

e|------------------------------------------------------------------------|
B|------------------------------------------------------------------------|
G|-------------------5-5-5-55-55-5555-------------------------------------| 2x
D|-7-7-7-77-77-7777--5-5-5-55-55-5555--5-5-5-55-55-5555--3-3-3-33-33-3333-|
A|-7-7-7-77-77-7777--3-3-3-33-33-3333--5-5-5-55-55-5555--3-3-3-33-33-3333-|
E|-5-5-5-55-55-5555--------------------3-3-3-33-33-3333--1-1-1-11-11-1111-|

Gtr 2 (Distored)

e|-------------------------------------------------------------------------|
B|-------------------------------------------------------------------------|
G|-/14-14-14-1414-1414-1414/1616-17171717171717171717171717171717-19191919-| continue
D|-------------------------------------------------------------------------|
A|-/12-12-12-1212-1212-1212/1414-15151515151515151515151515151515-17171717-|
E|-------------------------------------------------------------------------|

e|-----------------------------------------------------------------------------|
B|-----------------------------------------------------------------------------|
G|-12121212121212121212121212121212-9/10-10-10-10\9-999/10-10-10-10\9-9/10-14~-| 2x
D|-----------------------------------------------------------------------------|
A|-10101010101010101010101010101010-7/8--8--8---8\7-777/8--8--8---8\7-7/8--12~-|
E|-----------------------------------------------------------------------------|

Instrumental

Gtr 1 (Distored)

e|-----------------------------------------------------------------|
B|-----------------------------------------------------------------|
G|-----------------5-5-5-5-5-5-5-5---------------------------------|
D|-7-7-7-7-7-7-7-7-5-5-5-5-5-5-5-5-5-5-5-5-5-5-5-5-3-3-3-3-3-3-3-3-|
A|-7-7-7-7-7-7-7-7-3-3-3-3-3-3-3-3-5-5-5-5-5-5-5-5-3-3-3-3-3-3-3-3-|
E|-5-5-5-5-5-5-5-5-----------------3-3-3-3-3-3-3-3-1-1-1-1-1-1-1-1-|

e|--------------------------------------------------------------------|
B|--------------------------------------------------------------------|
G|-----------------5-5-5-5-5-5-5-5------------------------------------|
D|-7-7-7-7-7-7-7-7-5-5-5-5-5-5-5-5-5-5-5-5-5-5-5-5-3-3-3-3-3-3-3-3-7~-|
A|-7-7-7-7-7-7-7-7-3-3-3-3-3-3-3-3-5-5-5-5-5-5-5-5-3-3-3-3-3-3-3-3-7~-|
E|-5-5-5-5-5-5-5-5-----------------3-3-3-3-3-3-3-3-1-1-1-1-1-1-1-1-5~-|

Gtr 2 (Distored)

e|----------------------------------------------------------------------|
B|---------------------------------15-15/17~-15-13-12-/15-13-12-12h13---|
G|-14h16-17-17-17-16~-17-17/19-17~-----------------------------------14-| continue
D|----------------------------------------------------------------------|
A|----------------------------------------------------------------------|
E|----------------------------------------------------------------------|

e|----------------------------------------------------------------------------|
B|-------18-18-18-17-17-17-17-18-18-18-20-20-20-20-20-18-18-18-17-17-17-17-17-| continue
G|-14/17----------------------------------------------------------------------|
D|----------------------------------------------------------------------------|
A|----------------------------------------------------------------------------|
E|----------------------------------------------------------------------------|

e|-----------------------|
B|-15\13-12h13p12-10/22~-|
G|-----------------------|
D|-----------------------|
A|-----------------------|
E|-----------------------|

Bridge

Gtr 1 & 2

e|---------------------------------------------------------------------|
B|---------------------------------------------------------------------|
G|---------------------------------------------------------------------|
D|------------------5555555555555555-----------------------------------|
A|-7777777777777777-3333333333333333-5555555555555555-3333333333333333-|
E|-5555555555555555------------------3333333333333333-1111111111111111-|
P.M................ ................ ................ ................

Chorus

Gtr 1 (Distored)

e|------------------------------------------------------------------------|
B|------------------------------------------------------------------------|
G|-------------------5-5-5-55-55-5555-------------------------------------| 2x
D|-7-7-7-77-77-7777--5-5-5-55-55-5555--5-5-5-55-55-5555--3-3-3-33-33-3333-|
A|-7-7-7-77-77-7777--3-3-3-33-33-3333--5-5-5-55-55-5555--3-3-3-33-33-3333-|
E|-5-5-5-55-55-5555--------------------3-3-3-33-33-3333--1-1-1-11-11-1111-|

Gtr 2 (Distored)

e|-------------------------------------------------------------------------|
B|-------------------------------------------------------------------------|
G|-/14-14-14-1414-1414-1414/1616-17171717171717171717171717171717-19191919-| continue
D|-------------------------------------------------------------------------|
A|-/12-12-12-1212-1212-1212/1414-15151515151515151515151515151515-17171717-|
E|-------------------------------------------------------------------------|

e|-----------------------------------------------------------------------------|
B|-----------------------------------------------------------------------------|
G|-12121212121212121212121212121212-9/10-10-10-10\9-999/10-10-10-10\9-9/10-14~-| 2x
D|-----------------------------------------------------------------------------|
A|-10101010101010101010101010101010-7/8--8--8---8\7-777/8--8--8---8\7-7/8--12~-|
E|-----------------------------------------------------------------------------|

Outro

Gtr 1 (Distored)

e|------------------------------------------------------------------------|
B|------------------------------------------------------------------------|
G|-------------------5-5-5-55-55-5555-------------------------------------|
D|-7-7-7-77-77-7777--5-5-5-55-55-5555--5-5-5-55-55-5555--3-3-3-33-33-3333-|
A|-7-7-7-77-77-7777--3-3-3-33-33-3333--5-5-5-55-55-5555--3-3-3-33-33-3333-|
E|-5-5-5-55-55-5555--------------------3-3-3-33-33-3333--1-1-1-11-11-1111-|

Gtr 2 (Distored)

e|----------------------------------------------------------------------------------------------|
B|----------------------------------------------------------------------------------------------|
G|-14-14-14-1414-1414\9-99/1414-12121212-1212-1212-12121212-------------------------------------|
D|-----------------------------------------------------------5-5-5-55-55-5555--3-3-3-33-33-3333-|
A|-12-12-12-1212-1212\7-77/1212-10101010-1010-1010-10101010--5-5-5-55-55-5555--3-3-3-33-33-3333-|
E|-----------------------------------------------------------3-3-3-33-33-3333--1-1-1-11-11-1111-|

Gtr 1 (Distored)

e|----------------------------------------------------------------------------|
B|----------------------------------------------------------------------------|
G|-------------------5-5-5-55-55-5555-----------------------------------------|
D|-7-7-7-77-77-7777--5-5-5-55-55-5555--5-5-5-55-55-5555--3-3-3-33-33-3333--7~-|
A|-7-7-7-77-77-7777--3-3-3-33-33-3333--5-5-5-55-55-5555--3-3-3-33-33-3333--7~-|
E|-5-5-5-55-55-5555--------------------3-3-3-33-33-3333--1-1-1-11-11-1111--5~-|

Gtr 2 (Distored)

e|-------------------------------------------------------------------------|
B|-------------------------------------------------------------------------|
G|-/14-14-14-1414-1414-1414/1616-17171717171717171717171717171717-19191919-| continue
D|-------------------------------------------------------------------------|
A|-/12-12-12-1212-1212-1212/1414-15151515151515151515151515151515-17171717-|
E|-------------------------------------------------------------------------|

e|-----------------------------------------------------------------------------|
B|-----------------------------------------------------------------------------|
G|-12121212121212121212121212121212-9/10-10-10-10\9-999/10-10-10-10\9-9/10-14~-| 2x
D|-----------------------------------------------------------------------------|
A|-10101010101010101010101010101010-7/8--8--8---8\7-777/8--8--8---8\7-7/8--12~-|
E|-----------------------------------------------------------------------------|

End

Tabbed by josefsecillano1
6/25/2015 9:27PM
Добавлено: 20.12.2015
Другие материалы по этой песне:
  • Аккорды и текст

Страница создана 20.12.2015
http://primanota.ru/jurassic-pards/mahal-ko-si-yaya-chords.htm
Привет, Гость.
Предлагаем пройти революционный курс по гитаре.
Подарок от PrimaNota.Ru, забирай!