PrimaNota.ru - самый крупный в мире бесплатный архив песенных текстов, аккордов, табулатур и нот


Jupiter - Do It - бас-таба, видео

Регистрация Запомнить меня
Войти через:  Facebook Google Twitter Vk Yandex Mail.ru

Jupiter - Do It - бас-таба, видео

Печатать
Просмотров: 35
-------------------------------------------------------------------------------
                             DO IT - Jupiter
-------------------------------------------------------------------------------
Tabbed by: L.M.
E-mail: -

Tuning: Standard

Intro:

G|-----------------------7---------5-----------------------------------------|
D|---5---------5-------------------------------------------------------------|
A|---------------------5---5-----3---3---------------------------------------|
E|-3---3---x-3---3-x-6---------6-------x-6-----------------------------------|

G|-----------------------7---------5-----------------------------------------|
D|---5---------5-------------------------------------------------------------|
A|---------------------5---5---x-3---3---------------------------------------|
E|-3---3---x-3---3-x-6-----------------x-6-----------------------------------|

G|-----------------------7---------5-----------------------------------------|
D|---5---------5-------------------------------------------------------------|
A|---------------------5---5-----3---3---------------------------------------|
E|-3---3---x-3---3-x-6---------6-------x-6-----------------------------------|

G|-----------------------7---------5-----------------------------------------|
D|---5---------5-------------------------------------------------------------|
A|---------------------5---5---x-3---3---3-----------------------------------|
E|-3---3---x-3---3-x-6-----------------6-------------------------------------|

G|---7---------5-----------7------17-19\-------------------------------------|
D|---------------------------------------------------------------------------|
A|-5---5---x-3---3-----3-5---5/17--------------------------------------------|
E|-------------------6-------------------------------------------------------|

Verse:

Let me go...

G|---------------------7-------5---------------------------------------------|
D|-----5-------7-------------------------------------------------------------|
A|---5-------7-----5---------3---x-3-----------------------------------------|
E|-3-------5-------------x-6-------------------------------------------------|

And I know...

G|---------------------7-------5---------------------------------------------|
D|-----5-------7-------------------------------------------------------------|
A|---5-------7-----5---------3---x-3-----------------------------------------|
E|-3-------5-------------x-6-------------------------------------------------|

Wonder where...

G|---------------------------------------------------------------------------|
D|-----5-------7-------8-------7-------5-------7-----------------------------|
A|---5-------7-------8-------7-------5-------7-------------------------------|
E|-3-------5-------6-------5-------3-------5-------------------------12\-----|

(Break)

Chorus:

I really really...

G|-----------------------7---------5-----------------------------------------|
D|---5---------5-------------------------------------------------------------|
A|---------------------5---5-----3---3---------------------------------------|
E|-3---3---x-3---3-x-6---------6-------x-6-----------------------------------|

Never ever...

G|-----------------------7---------5-----------------------------------------|
D|---5---------5-------------------------------------------------------------|
A|---------------------5---5---x-3---3---------------------------------------|
E|-3---3---x-3---3-x-6-----------------x-6-----------------------------------|

Really really...

G|-----------------------7---------5-----------------------------------------|
D|---5---------5-------------------------------------------------------------|
A|---------------------5---5-----3---3---------------------------------------|
E|-3---3---x-3---3-x-6---------6-------x-6-----------------------------------|

Never ever...

G|-----------------------7---------5-----------------------------------------|
D|---5---------5-------------------------------------------------------------|
A|---------------------5---5---x-3---3---3-----------------------------------|
E|-3---3---x-3---3-x-6-----------------6-------------------------------------|

There's no reason...

G|---7---------5-----------7------17-19\-------------------------------------|
D|---------------------------------------------------------------------------|
A|-5---5---x-3---3-----3-5---5/17--------------------------------------------|
E|-------------------6-------------------------------------------------------|

Verse:

Let us play...

G|---------------------7-------5---------------------------------------------|
D|-----5-------7-------------------------------------------------------------|
A|---5-------7-----5---------3---x-3-----------------------------------------|
E|-3-------5-------------x-6-------------------------------------------------|

You could say...

G|---------------------7-------5---------------------------------------------|
D|-----5-------7-------------------------------------------------------------|
A|---5-------7-----5---------3---x-3-----------------------------------------|
E|-3-------5-------------x-6-------------------------------------------------|

Wonder where...

G|---------------------------------------------------------------------------|
D|-----5-------7-------8-------7-------5-------7-----------------------------|
A|---5-------7-------8-------7-------5-------7-------------------------------|
E|-3-------5-------6-------5-------3-------5-------------------------12\-----|

(Break)

Chorus:

I really really...

G|-----------------------7---------5-----------------------------------------|
D|---5---------5-------------------------------------------------------------|
A|---------------------5---5-----3---3---------------------------------------|
E|-3---3---x-3---3-x-6---------6-------x-6-----------------------------------|

Never ever...

G|-----------------------7---------5-----------------------------------------|
D|---5---------5-------------------------------------------------------------|
A|---------------------5---5---x-3---3---------------------------------------|
E|-3---3---x-3---3-x-6-----------------x-6-----------------------------------|

Really really...

G|-----------------------7---------5-----------------------------------------|
D|---5---------5-------------------------------------------------------------|
A|---------------------5---5-----3---3---------------------------------------|
E|-3---3---x-3---3-x-6---------6-------x-6-----------------------------------|

Never ever...

G|-----------------------7---------5-----------------------------------------|
D|---5---------5-------------------------------------------------------------|
A|---------------------5---5---x-3---3---3-----------------------------------|
E|-3---3---x-3---3-x-6-----------------6-------------------------------------|

There's no reason...

G|---7---------5-----------7------17-19\-------------------------------------|
D|---------------------------------------------------------------------------|
A|-5---5---x-3---3-----3-5---5/17--------------------------------------------|
E|-------------------6-------------------------------------------------------|

Keyboard solo (or whatever):

G|-----------------------7---------5-----------------------------------------|
D|---5---------5-------------------------------------------------------------|
A|---------------------5---5-----3---3---------------------------------------|
E|-3---3---x-3---3-x-6---------6-------x-6-----------------------------------|

G|-----------------------7---------5-----------------------------------------|
D|---5---------5-------------------------------------------------------------|
A|---------------------5---5---x-3---3---------------------------------------|
E|-3---3---x-3---3-x-6-----------------x-6-----------------------------------|

G|-----------------------7-------3-5-----------------------------------------|
D|---5---------5---------------------3-5-------------------------------------|
A|---------------------5---5-------------3-5---------------------------------|
E|-3---3---x-3---3-x-6---------6-------------6-5-----------------------------|

G|-----------------------7---------5-----------------------------------------|
D|---5---------5-------------------------------------------------------------|
A|---------------------5---5---x-3---3---3-----------------------------------|
E|-3---3---x-3---3-x-6-----------------6-------------------------------------|

G|---7---------5-----------7------17-19\-------------------------------------|
D|---------------------------------------------------------------------------|
A|-5---5---x-3---3-----3-5---5/17--------------------------------------------|
E|-------------------6-------------------------------------------------------|

Tell me where...

G|---------------------------------------------------------------------------|
D|-----5-------7-------8-------7-------5-------7-----------------------------|
A|---5-------7-------8-------7-------5-------7-------------------------------|
E|-3-------5-------6-------5-------3-------5-------6/------------------------|

(Break)

Never ever...

G|-------------------------------3-5-----------------------------------------|
D|-----------------------------------3-5-------------------------------------|
A|---------------------------------------3-5---------------------------------|
E|-------------------------------------------6-5-----------------------------|

Chorus:

I really really...

G|-----------------------7---------5-----------------------------------------|
D|---5---------5-------------------------------------------------------------|
A|---------------------5---5-----3---3---------------------------------------|
E|-3---3---x-3---3-x-6---------6-------x-6-----------------------------------|

Never ever...

G|-----------------------7---------5-----------------------------------------|
D|---5---------5-------------------------------------------------------------|
A|---------------------5---5---x-3---3---------------------------------------|
E|-3---3---x-3---3-x-6-----------------x-6-----------------------------------|

Really really...

G|-----------------------7---------5-----------------------------------------|
D|---5---------5-------------------------------------------------------------|
A|---------------------5---5-----3---3---------------------------------------|
E|-3---3---x-3---3-x-6---------6-------x-6-----------------------------------|

Never ever...

G|-----------------------7---------5-----------------------------------------|
D|---5---------5-------------------------------------------------------------|
A|---------------------5---5---x-3---3---3-----------------------------------|
E|-3---3---x-3---3-x-6-----------------6-------------------------------------|

There's no reason...

G|---7---------5-----------7------17-19\-------------------------------------|
D|---------------------------------------------------------------------------|
A|-5---5---x-3---3-----3-5---5/17--------------------------------------------|
E|-------------------6-------------------------------------------------------|

Outro:

G|-----------------------7---------5-----------------------------------------|
D|---5---------5-------------------------------------------------------------|
A|---------------------5---5-----3---3---------------------------------------|
E|-3---3---x-3---3-x-6---------6-------x-6-----------------------------------|

G|-----------------------7---------5-----------------------------------------|
D|---5---------5-------------------------------------------------------------|
A|---------------------5---5---x-3---3---------------------------------------|
E|-3---3---x-3---3-x-6-----------------x-6-----------------------------------|

G|---------------------------------------------------------------------------|
D|---5---7---8---10----12---10---8---7---------------------------------------|
A|---------------------------------------------------------------------------|
E|-3---5---6---8----10----8----6---5-----------------------------------------|

G|-----------------------7---------5-----------------------------------------|
D|---------------------------------------------------------------------------|
A|-------------------3-5---5---x-3---3---------------------------------------|
E|-3---------1-3---6-------------------x-6-----------------------------------|

G|-----------------------7---------5-----------------------------------------|
D|---5-----5-----------------------------------------------------------------|
A|-------------------3-5---5-----3---3---------------------------------------|
E|-3---3-----3-----6-----------6-------x-6-----------------------------------|

(Fade out)

G|-----------------------7---------5-----------------------------------------|
D|---5---------5-------------------------------------------------------------|
A|---------------------5---5---x-3---3---------------------------------------|
E|-3---3---x-3---3-x-6-----------------x-6-----------------------------------|

G|---------------------------------------------------------------------------|
D|---5---7---8---10----12---10---8---7---------------------------------------|
A|---------------------------------------------------------------------------|
E|-3---5---6---8----10----8----6---5-----------------------------------------|

G|-----------------------7---------5-----------------------------------------|
D|---------------------------------------------------------------------------|
A|-------------------3-5---5---x-3---3---------------------------------------|
E|-3---------1-3---6-------------------x-6-----------------------------------|

| /  slide up
| \  slide down
| x  Mute note
===============================================================================
Добавлено: 08.12.2015
Другие материалы по этой песне:
  • Аккорды и текст

Страница создана 08.12.2015
http://primanota.ru/jupiter/do-it-chords.htm
Привет, Гость.
Предлагаем пройти революционный курс по гитаре.
Подарок от PrimaNota.Ru, забирай!