PrimaNota.ru - самый крупный в мире бесплатный архив песенных текстов, аккордов, табулатур и нот


Jupiter Sunrise - Super X-ray Vision - аккорды и текст, видео

Регистрация Запомнить меня
Войти через:  Facebook Google Twitter Vk Yandex Mail.ru

Jupiter Sunrise - Super X-ray Vision - аккорды и текст, видео

Печатать
Просмотров: 123
Super X-ray Vision
Jupiter Sunrise
Hello, this is my first Tab/chords I'm almost positive it's all correct, but I 
can't be sure because I'm playing it by ear
                                                                      Enjoy  



INTRO:                                     Repeat x6 

e:--------11----11----11------------------------|----------------------------|
B:-----12----12----12---------12---12---12---12-|----------------------------|
G:--11-------------------11-9----9----9----9----|----------------------------|
D:----------------------------------------------|----------------------------|
A:----------------------------------------------|----------------------------|
E:----------------------------------------------|----------------------------|


  CHORDS:

So you like guys in uniform
B            E         B

I think I'll buy a uniform
              E       B

And maybe you will like me better
          E                B

And maybe I will like me better
          E              B

And maybe I'll be stronger with my super X-ray vision
     E               B               E          B

Then I could see right through you
     E                    B

Just like you could see through me
           E                    F#

Mr. Super Feelings Boy



   I know a police man               He carries a gun
B    F#        E         E      B       F#         E          E


   He has super-human strength       He lives in the sun
B     F#        E     E         B       F#            E       E

   I know a police man               He carries a gun   
C#    Ab       F#        F#     C#      Ab         F#         F#

   He never feels helpless           He never has fun
C#    Ab          F#      F#    C#      Ab         F#         F#

   Fun, Fun, Fun, Fun, Fun, like me, like me, like me, like me, like...
   F              E              B        E        B        E           

                                            Repeat x2
e:--------11----11----11------------------------|----------------------------|
B:-----12----12----12---------12---12---12---12-|----------------------------|
G:--11-------------------11-9----9----9----9----|----------------------------|
D:----------------------------------------------|----------------------------|
A:----------------------------------------------|----------------------------|
E:----------------------------------------------|----------------------------|
   
                                            Repeat X4
e:--------11----11----11------------------------|----------------------------|
B:-----12----12----12---------12---12---12---12-|----------------------------|
G:--11-------------------11-9----9----9----9----|----------------------------|
D:----------------------------------------------|----------------------------|
A:----------------------------------------------|----------------------------|
E:----------------------------------------------|----------------------------|
   So,                you like the way he looks
             I think I kinda look that way
                If    I     Died my   hair and 
    grew a bit    and threw away the cape
                                     B

Only to reveal the helpless little boy who can't destroy a fly
     E             B               E                 B        

With worthless X-ray vision                          Me
     E               B             E                 F#

Mr. Super feelings boy


   I know a police man               He carries a gun
B    F#        E         E      B       F#         E          E


   He has super-human strength       He lives in the sun
B     F#        E     E         B       F#            E       E

   I know a police man               He carries a gun   
C#    Ab       F#        F#     C#      Ab         F#         F#

   He never feels helpless           He never has fun
C#    Ab          F#      F#    C#      Ab         F#         F#

   Fun, Fun, Fun, Fun, Fun, like me, like me, like me, like me, like...
   F              E              B        E        B        E           

                                            Repeat x2
e:--------11----11----11------------------------|----------------------------|
B:-----12----12----12---------12---12---12---12-|----------------------------|
G:--11-------------------11-9----9----9----9----|----------------------------|
D:----------------------------------------------|----------------------------|
A:----------------------------------------------|----------------------------|
E:----------------------------------------------|----------------------------|

                                            Repeat x3
e:--------11----11----11------------------------|----------------------------|
B:-----12----12----12---------12---12---12---12-|----------------------------|
G:--11-------------------11-9----9----9----9----|----------------------------|
D:----------------------------------------------|----------------------------|
A:----------------------------------------------|----------------------------|
E:----------------------------------------------|----------------------------|
    So                   who's it going to be
                      Mr super hero man...
                                      Or me
                                         B            E

OH-OH OH OH   OH-OH OH OH
B             E

OH-OH OH OH   OH-OH OH OH
B             E

OH-OH OH OH   OH-OH OH OH
B             E

Me Mr. Super-Feelings Boy!
F#


   I know a police man               He carries a gun
B    F#        E         F#     B       F#         E          F#

   He has super-human strength       He lives in the sun
B     F#        E     F#        B       F#            E       F#

   I know a police man               He carries a gun   
C#    Ab       F#        F#     C#      Ab         F#         F#

   He never feels helpless           He never has fun
C#    Ab          F#      F#    C#      Ab         F#         F#

 Fun, Fun, Fun, Fun, Fun, like me, like me, like me,
  F              E              B        E        B
Добавлено: 16.05.2012
Другие материалы по этой песне:
  • Аккорды и текст

Страница создана 01.03.2012
http://primanota.ru/jupiter-sunrise/super-x-ray-vision-chords.htm
Привет, Гость.
Предлагаем пройти революционный курс по гитаре.
Подарок от PrimaNota.Ru, забирай!