PrimaNota.ru - самый крупный в мире бесплатный архив песенных текстов, аккордов, табулатур и нот


Jupiter One - Mystery Man - аккорды и текст, видео

Регистрация Запомнить меня
Войти через:  Facebook Google Twitter Vk Yandex Mail.ru

Jupiter One - Mystery Man - аккорды и текст, видео

Печатать
Просмотров: 59
Mystery Man
Jupiter One
Mystery Man - Jupiter One

You can play the first chords like this (it's not perfect, I know :) )
G
--3---3---3---3-|--2---2---2---2-|--0---0---0---0-|--0---0---0---0-|
--0---0---0---0-|--0---0---0---0-|--0---0---0---0-|--3---3---1---1-|
----------------|----------------|----------------|----------------|
----------------|----------------|----------------|----------------|
----------------|----------------|----------------|----------------|
3---3---3---3---|3---3---3---3---|3---3---3---3---|3---3---3---3---|

C
--3---3---3---3-|--2---2---2---2-|--0---0---0---0-|--0---0---0---0-|
--1---1---1---1-|--1---1---1---1-|--1---1---1---1-|--3---3---0---0-|
----------------|----------------|----------------|----------------|
----------------|----------------|----------------|----------------|
3---3---3---3---|3---3---3---3---|3---3---3---3---|3---3---3---3---|
----------------|----------------|----------------|----------------|

G C G C
G
Pieces of a dream
Candied at the seams
C
Tucked under my arm
As I heard the alarm

G
Woke up in a daze
Followed by a blaze
C
Of golden afternoon
So I picked up my spoon

G
Put it to my lips
Chilled like a blade
C
It cuts trough my cheek
The price I pay

C
A little bit closer
G
Try a bit deeper
D
Look under the sink
A
Cause there I am
C
Filled with plaster
G
The same fucking bastard
D           C
Mystery man

G
So can you guess my color
More famous than others
C
Not oak or a wooden hue
But could you guess blue?

G
Cool like sheets of sand
Wrinkled like my hand
C
Find it in the sky
Watching us when we die

C
A little bit closer
G
Try a bit deeper
D
Look under the sink
A
Cause there I am
C
Filled with plaster
G
The same fucking bastard
D           C
Mystery man

Em
Why the gloomy face?
Bm
Was it a disgrace?
C                 D
Cause I was only joking

Em
The debts they all will fade
Bm
Consider them repaid
C        D
Ooh la la la

Em
Your stories are so old
Bm
They can be untold 
C      D
  or sold

C
A little bit closer
G
Try a bit deeper
D
Look under the sink
A
Cause there I am
C
Filled with plaster
G
The same fucking bastard
D           C
Mystery man

Em Bm C D
Em Bm C D

C
A little bit closer
G
Try a bit deeper
D
Look under the sink
A
Cause there I am
C
Filled with plaster
G
The same fucking bastard
D           C
Mystery man



Hope you enjoy
Greetings
Rockrad
Добавлено: 26.05.2016
Вам также может быть интересно:
Другие материалы по этой песне:
  • Аккорды и текст

Страница создана 26.05.2016
http://primanota.ru/jupiter-one/mystery-man-chords.htm
Привет, Гость.
Предлагаем пройти революционный курс по гитаре.
Подарок от PrimaNota.Ru, забирай!