PrimaNota.ru - самый крупный в мире бесплатный архив песенных текстов, аккордов, табулатур и нот


Jupiter Jones - Rennen Und Stolpern - бас-таба, видео

Регистрация Запомнить меня
Войти через:  Facebook Google Twitter Vk Yandex Mail.ru

Jupiter Jones - Rennen Und Stolpern - бас-таба, видео

Печатать
Просмотров: 180
Уроки эстрадного вокала в Санкт-Петербурге
-------------------------------------------------------------------------------
     Rennen und Stolpern - Jupiter Jones
-------------------------------------------------------------------------------
Tabbed by: Timo Tautges
E-mail: timotautges@hotmail.de

Tuning: Probably its drop-D but I did it on a version with standard-tuning. Listen to 
the touch-technique. I'll just give you the notes. It's my first attempt, I hope it's for 
the greater part correct.


G|---Verse 2x---------------------------------------------------------------|
D|-----0:11-----------------------------------------------------------------|
A|------------------------------------------66 -----------------------------|
E|-----33 333 333 333 3 - 66 666 6 11 111 ----------------------------------|

G|--------------------------------------------------------------------------|
D|--------------------------------------------------------------------------|
A|----666 666 666 666 666 6- 88 888 ----------------------------------------|
E|--------------------------------------------------------------------------|

G|---Bridge 2x -------------------------------------------------------------|
D|--------------------------------------------------------------------------|
A|--33 333 3 66 666 6 ------------------------------------------------------|
E|--------------------11-111-111-111-1--------------------------------------|

G|---Chorus 2x-------------------------------------------------------------|
D|-------------------------------------------------------------------------|
A|--------------------66666666---------88888888 ---10-10-10-10-10-10-10-10-|
E|--33333333 11111111---------66666666-------------------------------------|

G|-------------------------------------------------------------------------|
D|-------------------------------------------------------------------------|
A|-66666666-66666666-------------------------------------------------------|
E|-------------------------------------------------------------------------|-

Bridge 2x

Verse 1x

Verse 2x
Bridge 2x
Chorus 2x
Bridge 2x


       2:47          2:53
G|--------------------10----12---8\-----------------------------------------|
D|--------------------------------------------------------------------------|
A|------10 hold-------------------------------------------------------------|
E|--------------------------------------------------------------------------|

Chorus 2x
Bridge 2x

End
G|-------------------------------------------------------------------------|
D|-------------------------------------------------------------------------|
A|---10-10--3-3---6 --- 10-10--13-13--8-----10-10--3-3---6/88888888--------|
E|-------------------------------------------------------------------------|



| /  slide up
| \  slide down
| h  hammer-on
| p  pull-off
| ~  vibrato
| +  harmonic
| x  Mute note
===============================================================================
Добавлено: 14.02.2014
Другие материалы по этой песне:
  • Аккорды и текст

Страница создана 14.02.2014
http://primanota.ru/jupiter-jones/rennen-und-stolpern-chords.htm
Привет, Гость.
Предлагаем пройти революционный курс по гитаре.
Подарок от PrimaNota.Ru, забирай!