PrimaNota.ru - самый крупный в мире бесплатный архив песенных текстов, аккордов, табулатур и нот


Jupiter Jones - Oh Htt Ich Dich Verloren - таба, видео

Регистрация Запомнить меня
Войти через:  Facebook Google Twitter Vk Yandex Mail.ru

Jupiter Jones - Oh Htt Ich Dich Verloren - таба, видео

Печатать
Просмотров: 148
Tabbed by: Chris Doktor
Email: thedoktor@gmx.de
Tuning: Standard

That's my very first Tab, hope you enjoy! 
Any comments/questions email me.

Intro
|-----------------------------------------------------------|
|-----------------------------------------------------------|
|-----------------------------------------------------------|
|--------9-------------9--------------9--------------9------|
|----10-----10-----10-----10------10-----10------10-----10--|
|-8-------------8-------------10-------------10-------------|  2x

0:08
|---------------------------------------------------------|
|---------------------------------------------------------|
|---------------------------------------------------------|
|--------0-------------0-------------0-------------0------|
|----10-----10-----10-----10-----10-----10-----10-----10--|
|-8-------------8-------------0-------------0-------------|

|------------------------------------------------------------|
|------------------------------------------------------------|
|------------------------------------------------------------|
|---------0--------------0--------------0-------------0------|
|-----10-----10------10------10-----10-----10-----10-----10--|
|-10-------------10--------------7-------------8-------------| 2x


0:26
|---------------------------------------------------------|
|---------------------------------------------------------|
|---------------------------------------------------------|
|--------9-------------9-------------9-------------9------|
|----10-----10-----10-----10-----10-----10-----10-----10--|
|-8-------------8-------------0-------------0-------------|

|------------------------------------------------------------|
|------------------------------------------------------------|
|------------------------------------------------------------|
|---------9--------------9--------------9-------------9------|
|-----10-----10------10------10-----10-----10-----10-----10--|
|-10-------------10--------------7-------------8-------------| 2x


0:44
|---------------------------------------------------------|
|---------------------------------------------------------|
|---------------------------------------------------------|
|---------------------------------------------------------|
|----10-----10-----10-----10-----10-----10-----10-----10--|
|-8------8------8------8------0------0------0------0------|

|-------------------------------------------------------------|
|-------------------------------------------------------------|
|-------------------------------------------------------------|
|-------------------------------------------------------------|
|-----10------10------10------10-----10-----10-----10-----10--|
|-10------10------10------10------7------7------8------8------| 2x


1:02
|---------------------------------------------------------|
|---------------------------------------------------------|
|---------------------------------------------------------|
|--------9-------------9-------------9-------------9------|
|----10-----10-----10-----10-----10-----10-----10-----10--|
|-8-------------8-------------0-------------0-------------|

|------------------------------------------------------------|
|------------------------------------------------------------|
|------------------------------------------------------------|
|---------9--------------9--------------9-------------9------|
|-----10-----10------10------10-----10-----10-----10-----10--|
|-10-------------10--------------7-------------8-------------| 2x


1:19
|-------------------------------------------------------------------|
|-------------------------------------------------------------------|
|-------------------------------------------------------------------|
|-------------------------------------------------------------------|
|-------------------------------------------------------------------|
|-/-15--15--15--15--15--15--15--15--17--17--17--17--15--15--15--15--|

|--------------------------------------------------------------|
|--------------------------------------------------------------|
|--------------------------------------------------------------|
|--------------------------------------------------------------|
|-17--17--17--17--17--17--17--17--15--15--15--15--17--17--17---|
|--------------------------------------------------------------| 4x


1:54
|---------------------------------------------------------|
|---------------------------------------------------------|
|---------------------------------------------------------|
|--------9-------------9-------------9-------------9------|
|----10-----10-----10-----10-----10-----10-----10-----10--|
|-8-------------8-------------0-------------0-------------|

|------------------------------------------------------------|
|------------------------------------------------------------|
|------------------------------------------------------------|
|---------9--------------9--------------9-------------9------|
|-----10-----10------10------10-----10-----10-----10-----10--|
|-10-------------10--------------7-------------8-------------| 2x


02:12
|---------------------------------------------------------------------|
|---------------------------------------------------------------------|
|---------------------------------------------------------------------|
|---------------------------------------------------------------------|
|---------------------------------------------------------------------|
|--/--15--15--15--15--15--15--15--15--17--17--17--17--15--15--15--15--|

|---------------------------------------------------------------|
|---------------------------------------------------------------|
|---------------------------------------------------------------|
|---------------------------------------------------------------|
|--17--17--17--17--17--17--17--17--15--15--15--15--17--17--17---|
|---------------------------------------------------------------| 4x


2:47
|------------------------------------------------------------|
|------------------------------------------------------------|
|------------------------------------------------------------|
|---------9-------------9--------------9--------------9------|
|-----10-----10-----10-----10------10-----10------10-----10--|
|--8-------------8-------------10-------------10-------------| 2x


2:56
|------------------------------------------------------------------------------------------------|
|------------------------------------------------------------------------------------------------|
|--------------------------------------------------------------------------------------------9---|
|---------0-------------0-------------0-------------0--------------0--------------0----------9---|
|-----10-----10-----10-----10-----10-----10-----10-----10------10-----10------10------10----10---|
|--8-------------8-------------0-------------0-------------10-------------10-----------------8---|


Oh haett' ich dich verloren 
wuerds das Beste sein 
ich wuerd die Zeit vergessen 
waer von jetzt an besser doch allein 
weil Raum und Zeit sich kruemmen 
und bucklig vor mir stehen 
hab ich verlernt zu lernen 
und nie verstanden zu verstehen 

Oh haett' ich dich verloren 
dann wuerds das Schlauste sein 
ich wuerd mich selbst vergraben 
unter ner Vergangenheit aus Stein 
weil Hirn und Herz sich kruemmen 
und dann so vor mir stehen 
sie koennen's selbst kaum glauben 
dass sie sich zur Zeit selten sehen 
so selten sehen 

Oh haett' ich dich verloren 
dann wuerds das Schlimmste sein 
dich auch noch zu vergessen 
nur um mir die Fehler zu verzeih'n 
weil sich die Tage kruemmen 
und endlos vor mir steh'n 
werd sie im Schlaf verbringen 
und hier im Traum wuerd'st du nicht gehen 
wuerd'st du nicht gehen 

Oh haett' ich dich verloren 
muesst ich ehrlich sein 
ich bin nicht gern so traurig 
sicherlich auch nicht so gern allein 
weil wir uns beide kruemmen 
wenn wir uns lang nicht sehen 
werd ich die Hoffnung wahren
Добавлено: 22.05.2012
Другие материалы по этой песне:
  • Аккорды и текст

Страница создана 22.05.2012
http://primanota.ru/jupiter-jones/oh-htt-ich-dich-verloren-chords.htm
Привет, Гость.
Предлагаем пройти революционный курс по гитаре.
Подарок от PrimaNota.Ru, забирай!