PrimaNota.ru - самый крупный в мире бесплатный архив песенных текстов, аккордов, табулатур и нот


Junoon - Pyar Bina - таба, видео

Регистрация Запомнить меня
Войти через:  Facebook Google Twitter Vk Yandex Mail.ru

Junoon - Pyar Bina - таба, видео

Печатать
Просмотров: 109
Уроки эстрадного вокала в Санкт-Петербурге
BAND: JunOOn
SONG:Pyar Bina (Instrumental)
Album:Parwaz
Tabs provided by : Me ( Hammad Khan)


Intro:
e|--------------------------------|
B|--------------------------------|
G|--------------------------------|
D|-0-5p0-0-5p0--0-3p0-0-3p0-0-3p0-|
A|--------------------------------|
E|--------------------------------|

then
G - F - C - G

Guitar 1

e|------------------------------------------|
B|--8-10-13-12-----12s15--13-12-10-8s15-10---|
G|------------------------------------------|        Fig 1
D|------------------------------------------|
A|------------------------------------------|
E|------------------------------------------|


e|--------------------------------|
B|--8-10-12-10--10s12--10-8-8-----|
G|--------------------------------|
D|--------------------------------|           Fig 2
A|--------------------------------|
E|--------------------------------|

Play both Fig 1 and 2 again.


Guitar 2
e|-----5-----3-----|
B|-------3-----3---|
G|---4-----4-----4-|
D|-5---------------|
A|-----------------|
E|-----------------|

Riff 3
e|-----3-----1-----|
B|-------1-----1---|
G|---2-----2-----2-|
D|-3---------------|
A|-----------------|
E|-----------------|

The song goes on untill the solo !

Solo
e|---------------------------------------------------|
B|-8/10-8~-12~-8/10-8--8-8\7-7\5-5\3-3\1--1-1/3-1-3~-|
G|---------------------------------------------------|
D|---------------------------------------------------|
A|---------------------------------------------------|
E|---------------------------------------------------|

e|---------------------------------------------------|
B|-8/10-8~-12b15r12-8/10-8--8-8\7-7\5-5\3-3\1--1-1/3-|
G|---------------------------------------------------|
D|---------------------------------------------------|
A|---------------------------------------------------|
E|---------------------------------------------------|

e|-------------------------------------|
B|-12-12-12-13-13-13-15-15-15-13-13-13-| x2
G|-------------------------------------|
D|-------------------------------------|
A|-------------------------------------|
E|-------------------------------------|

e|-12-12-12-13-13-13-15-15-15-13-13-13-12~-|
B|-----------------------------------------|
G|-----------------------------------------|
D|-----------------------------------------|
A|-----------------------------------------|
E|-----------------------------------------|

e|-15-13-12--12-13-12-------------------------|
B|---------------------15-13-12--12-13-12-10~-|
G|--------------------------------------------|
D|--------------------------------------------|
A|--------------------------------------------|
E|--------------------------------------------|

NOTE :I dident mentioned the 'pyar to hai ager ...' part due to lazyness :p
           but this should do by the way . enjoy it !
           BY THE WAY.. go to the intro instantly after finishing the solo 
for
          classic touch !

_________________________________________________________________
     
Добавлено: 23.08.2013
Другие материалы по этой песне:
  • Аккорды и текст

Страница создана 23.08.2013
http://primanota.ru/junoon/pyar-bina-chords.htm
Привет, Гость.
Предлагаем пройти революционный курс по гитаре.
Подарок от PrimaNota.Ru, забирай!