PrimaNota.ru - самый крупный в мире бесплатный архив песенных текстов, аккордов, табулатур и нот


Junoon - Neend Aati Nahin - аккорды и текст, видео

Регистрация Запомнить меня
Войти через:  Facebook Google Twitter Vk Yandex Mail.ru

Junoon - Neend Aati Nahin - аккорды и текст, видео

Печатать
Просмотров: 168
Neend Aati Nahin
Junoon
Junoon -Neend Ati Nahin
By Sanjeev George and Thomas George
Contact at Sanjeevgeorge123@yahoo.co.in
ITS BASICALLY ARPS PLAYED ON THESE CHORDS
Intro: D
Then D5  G5  A5  x 3 times
THEN
e|--------0-----------0------0---0--------------------|
B|------3---3-------3---3----3-----2------------------|
G|----2-------2---2-------2--2-------2----------------|
D|--0-----------0------------0------------------------|
A|----------------------------------------------------|
E|----------------------------------------------------|

  D                G
Neend ati nahin, sari sari raat
  D                 A 
Koi tuj se kahay, mere dil ki baat
   D                 G      
Eik tu jo nahin, aaj mere saat
   D                 A 
Muj ko veran lage, saari kaynat
 Bm      Em

Tere or mere
  A                       G   D 
Rastey hon kabhi na juda na juda
  D              G        A 
Kya, jane koi zinda hai kaise
 D              G              A      D
Meri jan, ye zindagi to ho rahi hai veran
  D            G             A 
Tere bin hai jan aise badan mein
  D             G             A 
Jaise tanha ho panchi chaman mein 

  D                G
Neend ati nahin, sari sari raat
  D                 A 
Koi tuj se kahay, mere dil ki baat
   D                 G      
Eik tu jo nahin, aaj mere saat
   D                 A 
Muj ko veran lage, saari kaynat


  Bm           Em
Mein to yehi chahon,
  D           A          G       D 
Dooriyan na rahey dooriyan, dooriyan

e|---------------------------------------------|
B|---------------------------------------------|
G|--7---7---6---7v---7---7---6---7v------------|like that it goes
D|--------7---7------------7---7---------------|
A|----5----------------5-----------------------|
E|---------------------------------------------|

 D          G               A 
Wo, aanso bhari aankho mai ghome
  D                G          A           D 
Din raat, to barishon mai bhegta tha mere saath
  D            G             A 
Aanganon me jo saaye jawan thae
  D            G             A 
Dhoop me wo bicharte kahan thae 
Pre solo : D  G  D  A
SOLO: D  G  D  A
      Bm  Em  A  D

D
Neend ati nahin
Neend ati nahin
Neend ati nahin
FADES AWAY

Добавлено: 18.07.2012
Другие материалы по этой песне:
  • Аккорды и текст

Страница создана 08.03.2012
http://primanota.ru/junoon/neend-aati-nahin-chords.htm
Привет, Гость.
Предлагаем пройти революционный курс по гитаре.
Подарок от PrimaNota.Ru, забирай!