PrimaNota.ru - самый крупный в мире бесплатный архив песенных текстов, аккордов, табулатур и нот


Junoon - Meri Awaz Suno - аккорды и текст, таба, видео

Регистрация Запомнить меня
Войти через:  Facebook Google Twitter Vk Yandex Mail.ru

Junoon - Meri Awaz Suno - аккорды и текст, таба, видео

Печатать
Просмотров: 151
Meri Awaz Suno
Junoon
Junoon, Meri Awaz Suno.
Tabbed by Apurva Brahmbhatt, jedi33@yahoo.com.
  
 

Date: Wed, 19 Jul 2000 15:16:24 -0400
From: Apurva Brahmbhatt 
Subject: j/junoon/meri_awaz_suno.tab


Song: Meri Awaz Suno
Band: Junoon
Album: Azadi


Bi, I am new to transcription, so forgive me for any errors,
and please feel free to reach me at my above address if you have any comments
or suggestions..

A quick word about this piece...
I havent clearly deciphered all the chords of the rhythm guitar, but
I have written down the stuff here that makes sense and is simple.
It is not hard to figure out the upstrokes and downstrokes on rhythm guitar.

It is somewhat difficult to decipher the phrases and licks of the solo from
these tabs without timing info, but if you are keen, 
you will find your way through! They are almost note-by-note.
I have left some more spaces between different licks to make things easier.


Bere is some explantion of the notation. 

h  =  hammer on         
p  =  pull off          
/  =  slide up          
  = slide down         
^  = bend with size of bend notated above
v  = already bent, release to the fret number on right
~  =  vibrato


   Am
--------0-------------0-------------0-------------0-------
------1---1---------1---1---------1---1---------1---1-----
----2-------2-----2-------2-----2-------2-----2-------2---
----------------------------------------------------------
--0-------------0-------------0-------------0-----------0
----------------------------------------------------------

Figure -1
---------
      Em                Repeat 4 times
-----7---7-7----7-7-----7-7---7-7---7-7--
-----8---8-8----8-8-----8-8---8-8---8-8--
-----9---9-9----9-9-----9-9---9-9---9-9--
-----9---9-9----9-9----------------------
-----7---7-7----7-7----------------------
-----------------------------------------
 Meri awaz ....

  ..   Azad karo Insaf do.. 

Continue Fig. 1
---------------
......
......
......


                ga ma ni dha ni saa ni dha..
Guitar-I
-------------5~~------------------5-----------------------------------
------8-7-8-----------------8-7-8---8-7~~-----------------------------
--5-7-------------------5-7-------------------------------------------
----------------------------------------------------------------------
----------------------------------------------------------------------
----------------------------------------------------------------------
Guitar-II

----------------------------------------------------------------------
----------------------------------------------------------------------
----------------------------5-4-5-7-5-4~~-----------------------------
------5-4-5--7~~--------3-5-------------------------------------------
--3-5-----------------------------------------------------------------
----------------------------------------------------------------------


Guitar-I
----------------------------------------------------------------------
---------------8-7-8-----------------------8-7-8----------------------
-5-4-5--7-6-7--------7-6-7--5-4-5-4--7-6-7-------7-6-7----------------
----------------------------------------------------------------------
----------------------------------------------------------------------
----------------------------------------------------------------------

Guitar-II
----------------------------------------------------------------------
----------------------------------------------------------------------
----------------------------------------------------------------------
---------------5-4-5-----------------------5-4-5----------------------
-3-2-3--5-4-5--------5-4-5--3-2-3-2--5-4-5-------5-4-5----------------
----------------------------------------------------------------------


Guitar Solo:
-----------
------9--11-9--11^13-13v11p9------------9-11-9--12^14--14v12p9-12~~~--
---10------------------------10~-----10-------------------------------
-9---------------------------------9----------------------------------
----------------------------------------------------------------------
----------------------------------------------------------------------
----------------------------------------------------------------------

-------15^17--17v15-15--12-12-----------------------------------------
----13-------------------------16-16~~---17v15-13--15^17v15-13--15-13
-12-------------------------------------------------------------------
----------------------------------------------------------------------
----------------------------------------------------------------------
----------------------------------------------------------------------

----------------------------------------------------------------------
-15-13--1511~~---(11)^13p10-11p9------------------11h13--------------
----------------------------------11-11p9--9h11h13--------------------
----------------------------------------------------------------------
----------------------------------------------------------------------
----------------------------------------------------------------------

-16^18~~----------19-20-19-17--19^21--21v19p17-19~~~----17----20^22~~-
----------17--20-------------------------------------------17---------
----------------------------------------------------------------------
----------------------------------------------------------------------
----------------------------------------------------------------------
----------------------------------------------------------------------

--20----22^24~~~----20p17----20p17----20p17-20p17--20^22-20~~---------
-----19-------------------17-------17---------------------------------
----------------------------------------------------------------------
----------------------------------------------------------------------
----------------------------------------------------------------------
----------------------------------------------------------------------

-20p17----20p17----20p17-20p17-------------------5-------5-------5----
-------17-------17-------------17--------------5-------5-------5------
----------------------------------14-14----7^9-----7^9-----7^9--------
----------------------------------------------------------------------
----------------------------------------------------------------------
----------------------------------------------------------------------

----------------------------------------------------------------------
-5h7p5h7p5------------------------------------------------------------
-----------7p5----5-7---5-7--5-7-7------------------------------------
----------------7-----7-----------------------------------------------
----------------------------------------------------------------------
----------------------------------------------------------------------

               

                   Tere ...


                   Meri ...

                   ..        Azad karo Insaf do

Figure-2-
Chord progression:
-----------------
Em             Dm              Cm
-----7-7--7-7--7-------5-5--5-5--5-------3-3--3-3--3--
-----8-8--8-8--8-------6-6--6-6--6-------4-4--4-4--4--
-----9-9--9-9--9-------7-7--7-7--7-------5-5--5-5--5--
-----9-9--9-9--9-------7-7--7-7--7-------5-5--5-5--5--
-----7-7--7-7--7-------5-5--5-5--5-------3-3--3-3--3--
------------------------------------------------------

Bm              Repeat Fig.2 till end..
-----2-2--2-2--2--
-----3-3--3-3--3--
-----4-4--4-4--4--
-----4-4--4-4--4--
-----2-2--2-2--2--
------------------



---------------------
feel free to drop me a line!

Apurva Brahmbhatt 
(jedi33@yahoo.com) 
 
Добавлено: 08.01.2014
Другие материалы по этой песне:
  • Аккорды и текст

Страница создана 12.04.2012
http://primanota.ru/junoon/meri-awaz-suno-chords.htm
Привет, Гость.
Предлагаем пройти революционный курс по гитаре.
Подарок от PrimaNota.Ru, забирай!