PrimaNota.ru - самый крупный в мире бесплатный архив песенных текстов, аккордов, табулатур и нот


Junoon - Maine Kabhi - таба, видео

Регистрация Запомнить меня
Войти через:  Facebook Google Twitter Vk Yandex Mail.ru

Junoon - Maine Kabhi - таба, видео

Печатать
Просмотров: 99
Intro: (Riff-1)

e--7--5--------5---3--2----3--2--0-----------0----------------------------------------|
B--7--5--5-----5---3--3----3--2--2---------0------------------------------------------|
G--------7-------------------------------3-------(x2)---------------------------------|
D--------------------------------------4----------------------------------------------|
A------------------------------------4-------------------0h2-2-2-2-2--oh2-2-2-2-2-----|
E-------------------------------------------------------------------------------------|

Bm...
kisi soch mein doobi zindagi
kisi yaad mein khoye raaste

A..
kabhi tujh ko paane ki justugu
                                  Bm..
kabhi tujh ko khone ke gham mjhee aee

Bm..
Ye paana khona kuch nahi
hona anhona kuch nahi

A..
sab chaon dhoop ke khawb hain
tujh milne ko betaab hain

F#m
jee ke bhi dekha
G
mar ke bhi dekha
Em                  A
phir bhi mein tanha raha..


Chorus:
      (Riff-1)
Main ne ....tujh ko kabhi dekha bhi nahi
aisaa....... nahi ke koi naata bhi nahi

Bm
rangon ko dekha hai ..
A                     F#m
taswaeeren dekhi nahi heyyy heyy
Bm
khabon ko dekha hai..
A                   F#m
tabeeren dekhi nahi heyy heyy

verse:
kahi dhool urate humssafar
kahin khak mein mil ker reh gaye
koi baat na mjh se keh sake
mere hont hi sil ker reh gaye

unhin mera pyar na mil saka
mjhe tera pyar na mil saka
koi hon gi teri majborian
jo ab tak hain ye doorian

jee ke bhi dekha
mar ke bhi dekha
phir bhi mein tanha raha..

Main ne ....tujh ko kabhi dekha bhi nahi
jeena... tere bin kabhi chaha bhi nahi


Lead:

e--7--7-7-----------------------------------------------------------------------------|
B--7--5h7-----------------------------------------------------------------------------|
G----------4-4-4--7-7-7--9-9-9--11-11-11--14-14-14-/14-14-14--------------------------|
D-------------------------------------------------------------------------------------|
A-------------------------------------------------------------------------------------|
E-------------------------------------------------------------------------------------|

e---------7--------------7--------------7---------------7-----------------------------|
B-------7---10p7-------7---10p7-------7----10p7-------7-----10~~----------------------|
G--9b11-----------9b11-----------9b11------------9b11---------------------------------|
D-------------------------------------------------------------------------------------|
A-------------------------------------------------------------------------------------|
E-------------------------------------------------------------------------------------|

e------------------------------------------10-------10--------10--------10------------|
B---10h12-12*--10h12-12*-10h12-12*---12-12----14b16-----14b16-----14b16----16~~-------|
G-------------------------------------------------------------------------------------|
D-------------------------------------------------------------------------------------|
A-------------------------------------------------------------------------------------|
E-------------------------------------------------------------------------------------|

e-------------------------------------------------------------------------------------|
B-------------------------------------------------------------------------------------|
G----------------------------14b16r14-12-11h12p11-------------------------------------|
D--11-12-14--14b16r14-12-12-----------------------14-12-14b216-14~~-------------------|
A-------------------------------------------------------------------------------------|
E-------------------------------------------------------------------------------------|

e-------------------------------------------------------------------------------------|
B---------------------------------------------10h12p10--8h10p8h10--7h8p7h8--5h7p7-----|
G---------------------------------11h12p11h12-------------------------------------7/9-|
D----------8h9p98h9---11h12p11h12-----------------------------------------------------|
A--7h9p7h9----------------------------------------------------------------------------|
E-------------------------------------------------------------------------------------|

e-------------------------------------17b19~~-----------------------------------------|
B------------14-15-14h15p14-----------------------------------------------------------|
G---------14----------------16-14-16--------------------------------------------------|
D------14-----------------------------------------------------------------------------|
A--/16--------------------------------------------------------------------------------|
E-------------------------------------------------------------------------------------|
Добавлено: 16.07.2012
Другие материалы по этой песне:
  • Аккорды и текст

Страница создана 16.07.2012
http://primanota.ru/junoon/maine-kabhi-chords.htm
Привет, Гость.
Предлагаем пройти революционный курс по гитаре.
Подарок от PrimaNota.Ru, забирай!