PrimaNota.ru - самый крупный в мире бесплатный архив песенных текстов, аккордов, табулатур и нот


Junoon - Kisne Suna - таба, видео

Регистрация Запомнить меня
Войти через:  Facebook Google Twitter Vk Yandex Mail.ru

Junoon - Kisne Suna - таба, видео

Печатать
Просмотров: 84
Title:      Kisne Suna
Artist:     Junoon
ALBUM/CD:   Azadi
Tabbed by:  Parees Kambli pareesk@hotmail.com>

Notes in brackets  > with 'h' on top are harmonics.
s is for slide.

                                                        h
e-------12-------10------8-----7-----5-----3-----2s0-- 12>-
B----------------------------------------------------------
G--9s12----12s11----11s9---9s7---7s5---5s4---4s2-----------
D----------------------------------------------------------
A----------------------------------------------------------
E----------------------------------------------------------

    h   h   h
e---------- 5>---------------------------------------------
B------ 7>-------------------------------------------------
G-- 7>-----------------------------------------------------
D----------------------------------------------------------
A----------------------------------------------------------
E----------------------------------------------------------

e----------------------------------------------------------
B------8-7-5---5-------------------------------------------
G--5-7-------7------4s2-4-4--------------------------------
D----------------------------------------------------------
A----------------------------------------------------------
E----------------------------------------------------------

e--7-8-7-5--5-7-5--------5---5s7-5-------------------------
B--8--------7-----8----8---8-------8-7-5---7---------------
G--9--------7----------------------------7---------7-------
D----------------------------------------------7s9---9-----
A----------------------------------------------------------
E----------------------------------------------------------


                                                        h
e-------12-------10------8-----7-----5-----3-----2s0-- 12>-
B----------------------------------------------------------
G--9s12----12s11----11s9---9s7---7s5---5s4---4s2-----------
D----------------------------------------------------------
A----------------------------------------------------------
E----------------------------------------------------------
     
Добавлено: 01.09.2013
Другие материалы по этой песне:
  • Аккорды и текст

Страница создана 01.09.2013
http://primanota.ru/junoon/kisne-suna-chords.htm
Привет, Гость.
Предлагаем пройти революционный курс по гитаре.
Подарок от PrimaNota.Ru, забирай!