PrimaNota.ru - самый крупный в мире бесплатный архив песенных текстов, аккордов, табулатур и нот


Junoon - Heer - таба, видео

Регистрация Запомнить меня
Войти через:  Facebook Google Twitter Vk Yandex Mail.ru

Junoon - Heer - таба, видео

Печатать
Просмотров: 150
                          HEER "INSTRUMENTAL" (JUNOON)
   
                            TABBED BY: OMER IMRAN

RIFF1
e--------------------------------------------------------------------             
B--------------------------------------------------------------------
G-5h7-7-7----5-7s-12-11-8--------------------------------------------
D-0----------0----0--0-----------------------------------------------
A--------------------------------------------------------------------
E--------------------------------------------------------------------
RIFF2
e--------------------------------------------------------------------
B--------------------------------------------------------------------
G--5h7-7-7---5-4-2-4-5--8P-7-----------------------------------------
D--0---------0---0-0-0-----------------------------------------------
A--------------------------------------------------------------------
E--------------------------------------------------------------------
(REPEAT RIFF1 & THEN RIFF2 THRICE)

Then:
RIFF 3
e ------------------------------------------------------------------
B ----------------7-----7-----7------7-----7-----7-----7-----7------
G --5/7---7---7-----7-----7-----7------7-----7-----7-----7-----7----
D --0---0---0---0-----0-----0------0-----0-----0-----0-----0-----0--
A --0---------------------------------------------------------------
E ------------------------------------------------------------------


e ------------------------------------------------------------------
B -7-----7-----8-----8-----8-----8-----8-----7---8---7---8--10---8--
G ---7-----7-----7-----7-----7-----7-----7--------------------------
D -----0-----0-----0-----0-----0-----0-----0---0---0---0---0---0---0
A ------------------------------------------------------------------
E ------------------------------------------------------------------

e -----------------------------------------------------------------
B ----5-----7-----8-----7-----5------------------------------------
G --5-----5-----5-----5-----5--------------------------------------
D ------0-----0-----0-----0-----0----------------------------------
A -----------------------------------------------------------------
E ----------------------------------------------------------------
Riff 4
e-------------------------------------------------------------------
G-------------------------------------------------------------------
D---9-7-9-7--------------BACK TO RIFF1&2----------------------------
B---0-0-0-0--------------PLAY TWICE---------------------------------
A-------------------------------------------------------------------
E-------------------------------------------------------------------

Then:
Riff 5

.e --10-8-7-------10-8-7------10-8-7----8-7--------------------------
.B ---------10-7---------10-7--------10-----10--10-8-7---------------
.G ----------------------------------------------------8-7-----------
.D ------------------------------------------------------------------
.A ------------------------------------------------------------------
.E ------------------------------------------------------------------

RIFF6
e--------------------------------------------------------------------
G--------------------------------------------------------------------
D-5h7-7-7-7h9-5-5h7-7-7-5--------------------------------------------
B--0-------0------------0--------------------------------------------
A--------------------------------------------------------------------
E--------------------------------------------------------------------

E ------------------------------------------------------------------
B --------------------5---------------------7--7--7-----------------
G --5h7---7---7---7-----7-5--5h7---7---7----7--7--7-----------------
D --0---0---0---0---0--------0---0---0---0--0--0--0-----------------
A --0------------------------0--------------------------------------
E ------------------------------------------------------------------


RIFF 1&2 are to be played twice in da end!
Look for a few pauses and play da song wid a clean flange!
Junoon Kick ass!
Добавлено: 30.05.2012
Другие материалы по этой песне:
  • Аккорды и текст

Страница создана 24.02.2012
http://primanota.ru/junoon/heer-chords.htm
Привет, Гость.
Предлагаем пройти революционный курс по гитаре.
Подарок от PrimaNota.Ru, забирай!