PrimaNota.ru - самый крупный в мире бесплатный архив песенных текстов, аккордов, табулатур и нот


Junoon - Bulleya - аккорды и текст, таба, видео

Регистрация Запомнить меня
Войти через:  Facebook Google Twitter Vk Yandex Mail.ru

Junoon - Bulleya - аккорды и текст, таба, видео

Печатать
Просмотров: 194
Уроки эстрадного вокала в Санкт-Петербурге
Bulleya
Junoon
Intro
======
 
----------0--------0------------------------0----------3---------0--
--------1------1--------------1-0---------1----------1-------1------
------2------2---2----------2-----------2----------2-------2---2----
----2---------------------2-----------2----------2------------------
--0---------------------0-----------0----------0--------------------
--------------------------------------------------------------------

---------------------0-
-------1-0---------1---
-----2-----------2-----
---2-----------2-------
-0-----------0---------
-----------0----------

Em   Dm	      Am		
Bulleya! kii jaanaaN.. .. kaun?

Riff-1 (x2)
=======
  Am		Bm	   	Am
--5--5--5-x-/--7-7-7-7--x------5--5--5-x-
--5--5--5-x-/--7-7-7-7--x------5--5--5-x-
--5--5--5-x-/--8-8-8-8--x------5--5--5-x-
--7--7--7-x-/--9-9-9-9--x------7--7--7-x-
--7--7--7-x-/--9-9-9-9--x------7--7--7-x-
--5--5--5-x-/--7-7-7-7--x------5--5--5-x-

	Dm	     Dm      C-C-C-B
 na .. .. momin vic masiitaaN

	Dm 	    Dm	    Am(barre on 5th fret - rapid pick)
 na .. vic kufr dii riit aaN 

	Dm	     Dm      C-C-C-B
 na ..  momin vic masiitaaN
	Dm 	    Dm	    Dm(barre on 5th fret - rapid pick)
 na ... vic kufr dii riit aaN 

	Dm	 C	B	
 na...  paakaaN vic, paliit aaN

Riff-2
======
-----------
-1-1-1-0---
-2-2-2-2---
-2-2-2-2---
-0-0-0-0---
-----------

 na .. muusaa, na fir'aun
            
during above Riff-3:
==================
-------------0-
-----------1---
---------2-----
-------2-------
-----0---------
---0----------      

     Em	Dm	Am		Riff-1      
 Bulleya! kii jaanaaN ...kaun?
 (x2)

	Dm	     Dm      C-C-C-B
 avval aaxir aap ... jaanaaN
	Dm 	    Dm	    Am(barre on 5th fret - rapid pick)
 na ... duujaa hor puchaanaaN


	Dm	     Dm      C-C-C-B
 avval aaxir aap ... jaanaaN

	Dm 	    Dm	    Dm(barre on 5th fret - rapid pick)
 na ... duujaa hor puchaanaaN

 	Dm	 C	B	
 maithoN vadh na .. sayyaanaaN - Riff-2


 oh, Bulleya! ... Bulleya!
      
(during above Riff-3:)
==================
-------------0-
-----------1---
---------2-----
-------2-------
-----0---------
---0----------      

     Em  Dm	Am	Riff-1                  
 Bulleya! kii jaanaaN ... kaun?
 (x2)

----------0--------0------------------------0--
--------1------1--------------1-0---------1----
------2------2---2----------2-----------2------
----2---------------------2-----------2--------
--0---------------------0-----------0----------
-----------------------------------------------



Guitar Solo:
------------

----------------------------------------------------------------
----------------------------------------------------------------
----9-7--5---9--7-5-/-7/-9---/12-12--10-10-----9-7--5-----
----7-5--3---7--5-3-/-5/-7---/10-10---8--8-----7-5--3-----
----------------------------------------------------------------
----------------------------------------------------------------

------------------------------------3h5p3-----------------------
-------------------------------3h5--------5-3h5p5---------------
--9--7-5-/-7/-9----2--2--4h5---------------------2-5~~-------
--7--5-3-/-5/-7----------------------------------------------
----------------------------------------------------------------
----------------------------------------------------------------

---------5-----------------------5-5----------------------------
---------5---8^10v8~~--10-8^10~~~----8p5------------------------
---------5-------------------------------7p5----5---5-7-5~~----
--75/7---------------------------------------7-----------------
----------------------------------------------------------------
----------------------------------------------------------------

---------------------------------------------------5h6h8--------
----------3h5h6--------5h6h8---------5h6h8--5h6h8---------------
---2h4h5---------4h5h7---------5h6h8----------------------------
----------------------------------------------------------------
----------------------------------------------------------------
----------------------------------------------------------------

-----------7h8h10-----------9h10h12-------13-12----15^17-15^17--
---7h8h10----------9h10h12-------------15-------15--------------
----------------------------------------------------------------
----------------------------------------------------------------
----------------------------------------------------------------
----------------------------------------------------------------

--15^17~~--19p17-20^22~~~20-17-20~~-----------------------------
----------------------------------------------------------------
----------------------------------------------------------------
----------------------------------------------------------------
----------------------------------------------------------------
----------------------------------------------------------------

 na ... paakaaN vic, paliit aaN
 na ... muusaa, na fir'aun
(same as original lines tabbed)


	C		Dm
 na ... aabii, na ... xaakii (x2)
	Em	Dm	Am 
na ... aatish, na ... paun (x2)
 (x1)
Добавлено: 13.09.2013
Другие материалы по этой песне:
  • Аккорды и текст

Страница создана 23.06.2012
http://primanota.ru/junoon/bulleya-chords.htm
Привет, Гость.
Предлагаем пройти революционный курс по гитаре.
Подарок от PrimaNota.Ru, забирай!