PrimaNota.ru - самый крупный в мире бесплатный архив песенных текстов, аккордов, табулатур и нот


Junkyard - Texas - бас-таба, видео

Регистрация Запомнить меня
Войти через:  Facebook Google Twitter Vk Yandex Mail.ru

Junkyard - Texas - бас-таба, видео

Печатать
Просмотров: 96
-------------------------------------------------------------------------------
                                                Texas - Junkyard
-------------------------------------------------------------------------------

Tabbed by: ChrisT

From the album: Junkyard (1989)

Tuning: Standard

Intro (0:09)                         Repeat x3
G|---------------|----------------------------|--------------------------|
D|---------------|o--------------------------o|--------------------------|
A|---------------|o------3---3-----3-5-5-3---o|------3---3---------------|
E|---3---3---3---|---5-5---5---5-5------------|--5-5---5---5-3---3---3---|

Verse 1              Repeat x4
G|----------------------------|
D|o--------------------------o|
A|o------3---3-----3-5-5-3---o|
E|---5-5---5---5-5------------|

Chorus     Repeat x4                                       Repeat x4
G|------------------|----------------------------|------------------|
D|o----------------o|o--------------------------o|o----------------o|
A|o--5---5---5-3---o|o------3---3-----3-5-5-3---o|o--5---5---5-3---o|
E|------------------|---5-5---5---5-5------------|------------------|

G|----------------------------|----------------------------------|
D|o--------------------------o|----------------------------------|
A|o------3---3-----3-5-5-3---o|----7---7---7---7\----------------|
E|---5-5---5---5-5------------|--0---0---0---0---0-0-0-0-2-3-4---|

                     Repeat x3
G|----------------------------|--------------------------|
D|o--------------------------o|--------------------------|
A|o------3---3-----3-5-5-3---o|------3---3---------------|
E|---5-5---5---5-5------------|--5-5---5---5-3---3---3---|

Verse 2              Repeat x4
G|----------------------------|
D|o--------------------------o|
A|o------3---3-----3-5-5-3---o|
E|---5-5---5---5-5------------|

Chorus     Repeat x4                                       Repeat x4
G|------------------|----------------------------|------------------|
D|o----------------o|o--------------------------o|o----------------o|
A|o--5---5---5-3---o|o------3---3-----3-5-5-3---o|o--5---5---5-3---o|
E|------------------|---5-5---5---5-5------------|------------------|

G|----------------------------|----------------------------------|
D|o--------------------------o|----------------------------------|
A|o------3---3-----3-5-5-3---o|----7---7---7---7\----------------|
E|---5-5---5---5-5------------|--0---0---0---0---0-0-0-0-2-3-4---|

G|------------------------------------------------|
D|------------------------------------------------|
A|------3---3-----3-5-5-3-----3---3---------------|
E|--5-5---5---5-5---------5-5---5---5-3---3---3---|

Guitar solo          Repeat x4
G|----------------------------|--------------------------------------------|
D|o--------------------------o|--------------------------------------------|
A|o------3---3-----3-5-5-3---o|--0---3---5---7---0---3---5---7-------------|
E|---5-5---5---5-5------------|----------------------------------0-2-3-4---|

                       Repeat x4                    Repeat x8
G|------------------------------|----------------------------|
D|o----------------------------o|o--------------------------o|
A|o------3-5-5-7-----3-5-5-3---o|o------3---3-----3-5-5-3---o|
E|---5-5---------5-5------------|---5-5---5---5-5------------|

Verse 3           Repeat x7                                           Repeat x4
G|-------------------------|-------------------------|-------------------------|
D|o-----------------------o|-------------------------|o-----------------------o|
A|o-----3---3-----3-5-5-3-o|------3---3--------------|o-----3---3-----3-5-5-3-o|
E|--5-5---5---5-5----------|--5-5---5---5-3---3---3--|--5-5---5---5-5----------|

Chorus   Repeat x4
G|----------------|--------------------------|---------------------------------|
D|o--------------o|o------------------------o|---------------------------------|
A|o-5---5---5-3--o|o-----3---3-----3-5-5-3--o|----7---7---7---7\---------------|
E|----------------|--5-5---5---5-5-----------|--0---0---0---0---0-0-0-0-2-3-4--|

G|--------------------------------------------------|
D|o------------------------------------------------o|
A|o------3---3-----3-5-5-3-----3---3---------------o|
E|---5-5---5---5-5---------5-5---5---5-3---3---3----|

                       Repeat x3
G|------------------------------|------|
D|o----------------------------o|------|
A|o------3-5-5-3---------------o|------|
E|---5-5---------5-3---3---3----|--5---|



| /  slide up
| \  slide down
| h  hammer-on
| p  pull-off
| ~  vibrato
| +  harmonic
| x  Mute note
===============================================================================
Добавлено: 03.11.2013
Вам также может быть интересно:
Другие материалы по этой песне:
  • Аккорды и текст

Страница создана 03.11.2013
http://primanota.ru/junkyard/texas-chords.htm
Привет, Гость.
Предлагаем пройти революционный курс по гитаре.
Подарок от PrimaNota.Ru, забирай!