PrimaNota.ru - самый крупный в мире бесплатный архив песенных текстов, аккордов, табулатур и нот


Junkyard - Shot In The Dark - бас-таба, видео

Регистрация Запомнить меня
Войти через:  Facebook Google Twitter Vk Yandex Mail.ru

Junkyard - Shot In The Dark - бас-таба, видео

Печатать
Просмотров: 95
-------------------------------------------------------------------------------
                                           Shot in The Dark - Junkyard
-------------------------------------------------------------------------------

Tabbed by: ChrisT

From the album: Junkyard (1989)

Tuning: Standard

Intro                                   Repeat x8
G|--------|--------------------------------------|
D|--------|o------------------------------------o|
A|--------|o------------------------------------o|
E|--12\---|---5-5-5-5-5-5-5-5-5-5-5-5-5-5-5-5----|

Verse 1                                                    Repeat x3
G|------------------------------------------------------------------|
D|o----------------------------------------------------------------o|
A|o--------------------------------------5---3-----5---------------o|
E|---5-5-5-5-5-5-5-5-5-5-5-5-5-5-5-5-5-5-------------3-4-5-5-5-3----|

G|----------------------------------------------------------------|
D|----------------------------------------------------------------|
A|--------------------------------------5---3-----5---------------|
E|--5-5-5-5-5-5-5-5-5-5-5-5-5-5-5-5-5-5---------------------------|

Chorus                                            Repeat x3
G|---------------------------------------------------------|
D|o-------------------------------------------------------o|
A|o-----------------5---5---5-5-5-------------------------o|
E|----3---3---3-3-3---------------5---5-3-5---5---5-3-5----|

G|------------------------------------------------------------|
D|------------------------------------------------------------|
A|-----------------5---5---5-5-5------------------------------|
E|---3---3---3-3-3---------------5---5-5-5-5-5-5-5------12\---|

                               Repeat x4
G|--------------------------------------|
D|o------------------------------------o|
A|o------------------------------------o|
E|---5-5-5-5-5-5-5-5-5-5-5-5-5-5-5-5----|

Verse 2                                                    Repeat x3
G|------------------------------------------------------------------|
D|o----------------------------------------------------------------o|
A|o--------------------------------------5---3-----5---------------o|
E|---5-5-5-5-5-5-5-5-5-5-5-5-5-5-5-5-5-5-------------3-4-5-5-5-3----|

G|----------------------------------------------------------------|
D|----------------------------------------------------------------|
A|--------------------------------------5---3-----5---------------|
E|--5-5-5-5-5-5-5-5-5-5-5-5-5-5-5-5-5-5---------------------12\---|

Chorus                                            Repeat x3
G|---------------------------------------------------------|
D|o-------------------------------------------------------o|
A|o-----------------5---5---5-5-5-------------------------o|
E|----3---3---3-3-3---------------5---5-3-5---5---5-3-5----|

G|-----------------------------------------------------------|
D|-----------------------------------------------------------|
A|-----------------5---5---5-5-5-----------------------------|
E|---3---3---3-3-3---------------5---5-5-5-5-5-5-5-----12\---|

Guitar Solo                                                Repeat x4
G|------------------------------------------------------------------|
D|o----------------------------------------------------------------o|
A|o--------------------------------------5---3-----5---------------o|
E|---5-5-5-5-5-5-5-5-5-5-5-5-5-5-5-5-5-5-------------3-4-5-5-5-3----|

                               Repeat x4
G|--------------------------------------|
D|o------------------------------------o|
A|o------------------------------------o|
E|---5-5-5-5-5-5-5-5-5-5-5-5-5-5-5-5----|

Verse 3                                                    Repeat x3
G|------------------------------------------------------------------|
D|o----------------------------------------------------------------o|
A|o--------------------------------------5---3-----5---------------o|
E|---5-5-5-5-5-5-5-5-5-5-5-5-5-5-5-5-5-5-------------3-4-5-5-5-3----|

G|----------------------------------------------------------------|
D|----------------------------------------------------------------|
A|--------------------------------------5---3-----5---------------|
E|--5-5-5-5-5-5-5-5-5-5-5-5-5-5-5-5-5-5---------------------12\---|

Chorus                                            Repeat x3
G|---------------------------------------------------------|
D|o-------------------------------------------------------o|
A|o-----------------5---5---5-5-5-------------------------o|
E|----3---3---3-3-3---------------5---5-3-5---5---5-3-5----|

G|-------------------------------------------------------|
D|-------------------------------------------------------|
A|-----------------5---5---5-5-5-------------------------|
E|---3---3---3-3-3---------------5---5-5-5-5-5-5-5-5-5---|



| /  slide up
| \  slide down
| h  hammer-on
| p  pull-off
| ~  vibrato
| +  harmonic
| x  Mute note

===============================================================================
http://en.wikipedia.org/wiki/Junkyard_(band)

Please rate or comment........
Добавлено: 18.10.2013
Другие материалы по этой песне:
  • Аккорды и текст

Страница создана 18.10.2013
http://primanota.ru/junkyard/shot-in-the-dark-chords.htm
Привет, Гость.
Предлагаем пройти революционный курс по гитаре.
Подарок от PrimaNota.Ru, забирай!