PrimaNota.ru - самый крупный в мире бесплатный архив песенных текстов, аккордов, табулатур и нот


Junkyard - Junkyard (album) - бас-таба, видео

Регистрация Запомнить меня
Войти через:  Facebook Google Twitter Vk Yandex Mail.ru

Junkyard - Junkyard (album) - бас-таба, видео

Печатать
Просмотров: 73
------------------------------------------------------------------------------------
                               Junkyard - Junkyard (1989)
------------------------------------------------------------------------------------

Tabbed by: ChrisT

1. Blooze
2. Hot Rod
3. Simple Man
4. Shot In The Dark
5. Hollywood
6. Life Sentence
7. Long Way Home
8. Can't Hold Back
9. Texas
10. Hands Off

------------------------------------------------------------------------------------
                                        Blooze
------------------------------------------------------------------------------------

Tuning: Standard

Intro
G|-----------------------------------------------------|
D|-----------------------------------------------------|
A|-------------------3h5-3-0-3-------------------------|
E|-----------------------------5-3-5-------------------|

G|------------------------------------------------------------|--------------------|
D|o----------------------------------------------------------o|--------------------|
A|o--3h5-3-0-3-----------------------------------------------o|--3h5-3-0-3-----5---|
E|-------------5-3-5-5-5-5-5-5-3-5-5-5-5-5-5-3-5-5-5-5-5-5----|------------5-3-----|

Verse 1
G|---------------------------------------------------------------------|
D|o--------------------------------------------------------------------|
A|o--5-5-5-5-5-5-5-5-5-5-5-5-5-5-5-3-5-5-5-5-5-5-5-5-5-5-5-5-5-5-5-3---|
E|---------------------------------------------------------------------|

                                               1st time only
G|--------------------------------------------|-------------------|
D|--------------------------------------------|------------------o|
A|--------------------------------------------|------------------o|
E|--5-5-5-5-5-5-3-5-5-5-5-5-5-3-5-5-5-5-5-5---|--3-5-5-5-5-5-5----|

Chorus
G|------------------------------------------------|
D|------------------------------------------------|
A|--3h5-3-0-3---------------------5---3-----------|
E|------------5-3-0-0---0-0---0-0---------5-3-5---|

                                            1st time only
G|-----------------------------------------|------------------|------------------|
D|o----------------------------------------|-----------------o|------------------|
A|o----------------------------------------|-3h5-3-0-3-------o|-3h5-3-0-3-----5--|
E|---5-5-5-5-5-3-5-5-5-5-5-5-3-5-5-5-5-5-5-|-----------5-3-5--|-----------5-3----|

Verse 2
G|---------------------------------------------------------------------|
D|o--------------------------------------------------------------------|
A|o--5-5-5-5-5-5-5-5-5-5-5-5-5-5-5-3-5-5-5-5-5-5-5-5-5-5-5-5-5-5-5-3---|
E|---------------------------------------------------------------------|

                                               1st time only
G|--------------------------------------------|-------------------|
D|--------------------------------------------|------------------o|
A|--------------------------------------------|------------------o|
E|--5-5-5-5-5-5-3-5-5-5-5-5-5-3-5-5-5-5-5-5---|--3-5-5-5-5-5-5----|

Chorus
G|------------------------------------------------|
D|------------------------------------------------|
A|--3h5-3-0-3---------------------5---3-----------|
E|------------5-3-0-0---0-0---0-0---------5-3-5---|

G|------------------------------------------------------------|
D|o----------------------------------------------------------o|
A|o----------------------------------------3h5-3-0-3---------o|
E|---5-5-5-5-5-3-5-5-5-5-5-5-3-5-5-5-5-5-5-----------5-3-5----|

Guitar Solo                                  1st time only
G|-----------------------------------------|------------------|------------------|
D|o----------------------------------------|-----------------o|------------------|
A|o----------------------------------------|-3h5-3-0-3-------o|-3h5-3-0-3-----5--|
E|---5-5-5-5-5-3-5-5-5-5-5-5-3-5-5-5-5-5-5-|-----------5-3-5--|-----------5-3----|

G|--------------------------------------------------------------------|
D|--------------------------------------------------------------------|
A|--5-5-5-5-5-5-5-5-5-5-5-5-5-5-5-3-5-5-5-5-5-5-5-5-5-5-5-5-5-5-5-3---|
E|--------------------------------------------------------------------|

G|------------------------------------------------------------|
D|------------------------------------------------------------|
A|------------------------------------------3h5-3-0-3-----5---|
E|--5-5-5-5-5-5-3-5-5-5-5-5-5-3-5-5-5-5-5-5-----------5-3-----|

G|--------------------------------------------------------------------|
D|--------------------------------------------------------------------|
A|--5-5-5-5-5-5-5-5-5-5-5-5-5-5-5-3-5-5-5-5-5-5-5-5-5-5-5-5-5-5-5-3---|
E|--------------------------------------------------------------------|

G|------------------------------------------------------------------------|
D|------------------------------------------------------------------------|
A|------------------------------------------------------------------------|
E|--5-5-5-5-5-5-3-5-5-5-5-5-5-3-5-5-5-5-5-5-3-5-5-5-5-5-5-3-5-5-5-5-5-5---|

G|--------------------------------------------------------------|
D|--------------------------------------------------------------|
A|--------------------------------------------3h5-3-0-3---------|
E|--3-5-5-5-5-5-5-3-5-5-5-5-5-5-3-5-5-5-5-5-5-----------5-3-5---|

Bridge                                         Repeat x8
G|------------------------------------------------------|
D|o----------------------------------------------------o|
A|o--0-0-0-0-0-0-0-0-0-0-0-0-0-0-0-0-3h5-3-0-3---------o|
E|---------------------------------------------5-3-5----|

G|----------------------------------------------------|
D|----------------------------------------------------|
A|--0-0-0-0-0-0-0-0-0-0-0-0-0-0-0-0-3h5-3-0-3-----5---|
E|--------------------------------------------5-3-----|

Verse 3
G|--------------------------------------------------------------------|
D|o-------------------------------------------------------------------|
A|o--5-5-5-5-5-5-5-5-5-5-5-5-5-5-5-3-5-5-5-5-5-5-5-5-5-5-5-5-5-5-5-3--|
E|--------------------------------------------------------------------|

                                               1st time only
G|--------------------------------------------|---------------------|
D|--------------------------------------------|--------------------o|
A|--------------------------------------------|--3h5-3-0-3-----5---o|
E|--5-5-5-5-5-5-3-5-5-5-5-5-5-3-5-5-5-5-5-5---|------------5-3------|

Chorus
G|------------------------------------------------|
D|------------------------------------------------|
A|--3h5-3-0-3---------------------5---3-----------|
E|------------5-3-0-0---0-0---0-0---------5-3-5---|

G|------------------------------------------|
D|------------------------------------------|
A|------------------------------------------|
E|--5-5-5-5-5-3-5-5-5-5-5-5-3-5-5-5-5-5-5---|

G|------------------------------------------------|
D|------------------------------------------------|
A|--3h5-3-0-3---------------------5---3-----------|
E|------------5-3-0-0---0-0---0-0---------5-3-5---|
                                      
G|----------------------------------------------------------|
D|----------------------------------------------------------|
A|----------------------------------------3h5-3-0-3---------|
E|--5-5-5-5-5-3-5-5-5-5-5-5-3-5-5-5-5-5-5-----------5-3-5---|

===============================================================================


-------------------------------------------------------------------------------
                                    Hot Rod
-------------------------------------------------------------------------------

Tuning: standard

Intro
G|----------------------------------------------------------------|
D|----------------------------------------------------------------|
A|-----------------------2-------------2-------------2--/7---7\---|
E|--12---12\-0-0-2-2-3-3---0-0-2-2-3-3---0-0-2-2-3-3--------------|

Verse 1                                                       Repeat x3
G|---------------------------------------------------------------------|
D|o-------------------------------------------------------------------o|
A|o-----------------------------------------------------------3---3---o|
E|---0---2---0---2---0---2---3---3---5---5---5---5---5---5-------------|

G|------------------------------------------------------------------|
D|------------------------------------------------------------------|
A|------------------------------------------------------------------|
E|--0---2---0---2---0---2---3---3---5---5---5---5---5---5---5---5---|

Chorus
G|----------------------------------------------------------------|
D|----------------------------------------------------------------|
A|--5---5-5-----------------------5---5-5-------------------------|
E|----------5---5-5-0-0-3-3-0-0-0---------5---5-5-0-0-3-3-0-0-0---|

G|------------------------------------------------|
D|------------------------------------------------|
A|--5---5-5---------------------0h2-2-2-2-2-2-2---|
E|----------5---5-5-0-0-3-3-0-0-------------------|

G|-------------------------------------------------------|
D|-------------------------------------------------------|
A|--------------2-------------2-------------2--/7---7\---|
E|--0-0-2-2-3-3---0-0-2-2-3-3---0-0-2-2-3-3--------------|

Verse 2                                                      Repeat x3
G|---------------------------------------------------------------------|
D|o-------------------------------------------------------------------o|
A|o-----------------------------------------------------------3---3---o|
E|---0---2---0---2---0---2---3---3---5---5---5---5---5---5-------------|

G|------------------------------------------------------------------|
D|------------------------------------------------------------------|
A|------------------------------------------------------------------|
E|--0---2---0---2---0---2---3---3---5---5---5---5---5---5---5---5---|

Chorus
G|----------------------------------------------------------------|
D|----------------------------------------------------------------|
A|--5---5-5-----------------------5---5-5-------------------------|
E|----------5---5-5-0-0-3-3-0-0-0---------5---5-5-0-0-3-3-0-0-0---|

G|------------------------------------------------|
D|------------------------------------------------|
A|--5---5-5---------------------0h2-2-2-2-2-2-2---|
E|----------5---5-5-0-0-3-3-0-0-------------------|

G|-------------------------------------------------------|
D|-------------------------------------------------------|
A|--------------2-------------2-------------2--/7---7\---|
E|--0-0-2-2-3-3---0-0-2-2-3-3---0-0-2-2-3-3--------------|

Guitar Solo                Not 4th time    Repeat x4      
G|------------------------|------------------------|---------------------|
D|o-----------------------|-----------------------o|---------------------|
A|o------4-5-6-7-7-6-5-4--|-----------------------o|---------------------|
E|---5-5------------------|--0-0-2-0---0-0-2-3-4---|---7-7-7-7-7-7-7-7---|

G|-------------------------------------------------------|
D|-------------------------------------------------------|
A|--------------2-------------2-------------2--/7---7\---|
E|--0-0-2-2-3-3---0-0-2-2-3-3---0-0-2-2-3-3--------------|

Verse 3                                                      Repeat x3
G|---------------------------------------------------------------------|
D|o-------------------------------------------------------------------o|
A|o-----------------------------------------------------------3---3---o|
E|---0---2---0---2---0---2---3---3---5---5---5---5---5---5-------------|

G|------------------------------------------------------------------|
D|------------------------------------------------------------------|
A|------------------------------------------------------------------|
E|--0---2---0---2---0---2---3---3---5---5---5---5---5---5---5---5---|

Chorus
G|-----------------------------------------------------------------|
D|o----------------------------------------------------------------|
A|o--5---5-5-----------------------5---5-5-------------------------|
E|-----------5---5-5-0-0-3-3-0-0-0---------5---5-5-0-0-3-3-0-0-0---|

G|-------------------------------------------------|
D|------------------------------------------------o|
A|--5---5-5---------------------0h2-2-2-2-2-2-2---o|
E|----------5---5-5-0-0-3-3-0-0--------------------|

G|-------------------------------------------------------|
D|-------------------------------------------------------|
A|--------------2-------------2-------------2--/7---7\---|
E|--0-0-2-2-3-3---0-0-2-2-3-3---0-0-2-2-3-3--------------|


===============================================================================


-------------------------------------------------------------------------------
                              Simple Man
-------------------------------------------------------------------------------

Tuning: Standard

Intro (0:16)
G|----------------------------------------------|
D|o--------------------------------------------o|
A|o--0-2-3-5---5-7-5-3---------------2-5-2-5---o|
E|-------------------------0-1-2-3--------------|

Verse 1                                Repeat x4
G|----------------------------------------------|
D|o--------------------------------------------o|
A|o--0-2-3-5---5-7-5-3---------------2-5-2-5---o|
E|-------------------------0-1-2-3--------------|

Chorus
G|--------------------------------------------|
D|--------------------------------------------|
A|------------2-5-2-5---------------2-5-2-5---|
E|--0-1-2-3---------------0-1-2-3-------------|

G|--------------------------------------------|
D|--------------------------------------------|
A|------------2-5-2-3-----2-3-2-----------5---|
E|--0-1-2-3---------------------3---3-3-------|

Guitar solo
G|----------------------------------------------|
D|o--------------------------------------------o|
A|o---0-2-3-5---5-7-5-3---------------2-5-2-5--o|
E|--------------------------0-1-2-3-------------|

Verse 2                                Repeat x4
G|----------------------------------------------|
D|o--------------------------------------------o|
A|o---0-2-3-5---5-7-5-3---------------2-5-2-5--o|
E|--------------------------0-1-2-3-------------|

Chorus 
G|--------------------------------------------|
D|--------------------------------------------|
A|------------2-5-2-5---------------2-5-2-5---|
E|--0-1-2-3---------------0-1-2-3-------------|

G|--------------------------------------------|
D|--------------------------------------------|
A|------------2-5-2-3-----2-3-2-----------5---|
E|--0-1-2-3---------------------3---3-3-------|

Guitar solo                           Repeat x4
G|---------------------------------------------|
D|o-------------------------------------------o|
A|o--0-2-3-5---5-7-5-3---------------2-5-2-5--o|
E|-------------------------0-1-2-3-------------|

Bridge                         
G|---------------------------------------------------------------------|
D|---------------------------------------------------------------------|
A|---5-5-5-5-5-5-5-5-3-3-3-3-3-3-3-3-----------------5-5-5-5-5-5-5-5---|
E|-----------------------------------3-3-3-3-3-3-3-3-------------------|

G|---------------------------------------------------------------|
D|---------------------------------------------------------------|
A|---5-5-5-5-5-5-5-5-3-3-3-3-3-3-3-3-----------------5-5-5-5-5---|
E|-----------------------------------3-3-3-3-3-3-3-3-------------|

Chorus                                
G|--------------------------------------------|
D|--------------------------------------------|
A|------------2-5-2-5---------------2-5-2-5---|
E|--0-1-2-3---------------0-1-2-3-------------|

G|--------------------------------------------|
D|--------------------------------------------|
A|------------2-5-2-3-----2-3-2-----------5---|
E|--0-1-2-3---------------------3---3-3-------|

G|--------------------------------------------|
D|--------------------------------------------|
A|--0-2-3-5---5-7-5-3---------------2-5-2-5---|
E|-------------------------0-1-2-3------------|

G|--------------------------------------------|
D|--------------------------------------------|
A|--0-2-3-5---5-7-5-3---------------------5---|
E|-------------------------0-1-2-3------------|


===============================================================================

-------------------------------------------------------------------------------
                                 Shot in The Dark
-------------------------------------------------------------------------------

Tuning: Standard

Intro                                   Repeat x8
G|--------|--------------------------------------|
D|--------|o------------------------------------o|
A|--------|o------------------------------------o|
E|--12\---|---5-5-5-5-5-5-5-5-5-5-5-5-5-5-5-5----|

Verse 1                                                    Repeat x3
G|------------------------------------------------------------------|
D|o----------------------------------------------------------------o|
A|o--------------------------------------5---3-----5---------------o|
E|---5-5-5-5-5-5-5-5-5-5-5-5-5-5-5-5-5-5-------------3-4-5-5-5-3----|

G|----------------------------------------------------------------|
D|----------------------------------------------------------------|
A|--------------------------------------5---3-----5---------------|
E|--5-5-5-5-5-5-5-5-5-5-5-5-5-5-5-5-5-5---------------------------|

Chorus                                            Repeat x3
G|---------------------------------------------------------|
D|o-------------------------------------------------------o|
A|o-----------------5---5---5-5-5-------------------------o|
E|----3---3---3-3-3---------------5---5-3-5---5---5-3-5----|

G|------------------------------------------------------------|
D|------------------------------------------------------------|
A|-----------------5---5---5-5-5------------------------------|
E|---3---3---3-3-3---------------5---5-5-5-5-5-5-5------12\---|

                               Repeat x4
G|--------------------------------------|
D|o------------------------------------o|
A|o------------------------------------o|
E|---5-5-5-5-5-5-5-5-5-5-5-5-5-5-5-5----|

Verse 2                                                    Repeat x3
G|------------------------------------------------------------------|
D|o----------------------------------------------------------------o|
A|o--------------------------------------5---3-----5---------------o|
E|---5-5-5-5-5-5-5-5-5-5-5-5-5-5-5-5-5-5-------------3-4-5-5-5-3----|

G|----------------------------------------------------------------|
D|----------------------------------------------------------------|
A|--------------------------------------5---3-----5---------------|
E|--5-5-5-5-5-5-5-5-5-5-5-5-5-5-5-5-5-5---------------------12\---|

Chorus                                            Repeat x3
G|---------------------------------------------------------|
D|o-------------------------------------------------------o|
A|o-----------------5---5---5-5-5-------------------------o|
E|----3---3---3-3-3---------------5---5-3-5---5---5-3-5----|

G|-----------------------------------------------------------|
D|-----------------------------------------------------------|
A|-----------------5---5---5-5-5-----------------------------|
E|---3---3---3-3-3---------------5---5-5-5-5-5-5-5-----12\---|

Guitar Solo                                                Repeat x4
G|------------------------------------------------------------------|
D|o----------------------------------------------------------------o|
A|o--------------------------------------5---3-----5---------------o|
E|---5-5-5-5-5-5-5-5-5-5-5-5-5-5-5-5-5-5-------------3-4-5-5-5-3----|

                               Repeat x4
G|--------------------------------------|
D|o------------------------------------o|
A|o------------------------------------o|
E|---5-5-5-5-5-5-5-5-5-5-5-5-5-5-5-5----|

Verse 3                                                    Repeat x3
G|------------------------------------------------------------------|
D|o----------------------------------------------------------------o|
A|o--------------------------------------5---3-----5---------------o|
E|---5-5-5-5-5-5-5-5-5-5-5-5-5-5-5-5-5-5-------------3-4-5-5-5-3----|

G|----------------------------------------------------------------|
D|----------------------------------------------------------------|
A|--------------------------------------5---3-----5---------------|
E|--5-5-5-5-5-5-5-5-5-5-5-5-5-5-5-5-5-5---------------------12\---|

Chorus                                            Repeat x3
G|---------------------------------------------------------|
D|o-------------------------------------------------------o|
A|o-----------------5---5---5-5-5-------------------------o|
E|----3---3---3-3-3---------------5---5-3-5---5---5-3-5----|

G|-------------------------------------------------------|
D|-------------------------------------------------------|
A|-----------------5---5---5-5-5-------------------------|
E|---3---3---3-3-3---------------5---5-5-5-5-5-5-5-5-5---|


===============================================================================

-------------------------------------------------------------------------------
                                  Hollywood
-------------------------------------------------------------------------------

Tuning: Standard

Intro
G|------------------------------------|--------|
D|o----------------------------------o|--5-----|
A|o----5-0-0-2h3p2-0-----0-0-2h3p2---o|----5---|
E|---3--------------------------------|--------|

Verse 1                      Repeat x4
G|------------------------------------|--------------------|
D|o----------------------------------o|--5-----5-----5-----|
A|o--0-0-2h3p2-0-----0-0-2h3p2---5---o|----5-----5-----5---|
E|-----------------------------3------|--------------------|

Chorus
G|-------------------------------------------------|
D|o---------------------------------5-------------o|
A|o---------------3---3-3-3-------5---5-5-5---5---o|
E|----5---5-5-5---------------3-3-----------3------|

G|------------------------------------|
D|o----------------------------5-----o|
A|o--0-0-2h3p2-0-----0-0-2h3p2---5---o|
E|------------------------------------|

Verse 2                      Repeat x4
G|------------------------------------|--------------------|
D|o----------------------------------o|--5-----5-----5-----|
A|o--0-0-2h3p2-0-----0-0-2h3p2---5---o|----5-----5-----5---|
E|-----------------------------3------|--------------------|

Chorus
G|-------------------------------------------------|
D|o---------------------------------5-------------o|
A|o---------------3---3-3-3-------5---5-5-5---5---o|
E|----5---5-5-5---------------3-3-----------3------|

Guitar solo
G|------------------------------------------------------|
D|------------------------------------------------------|
A|------------5-----------5-----------5-------------5---|
E|--5-------3---5-------3---5-------3---5-----10\-3-----|

G|-------------------------------------------------|
D|o---------------------------------5-------------o|
A|o---------------3---3-3-3-------5---5-5-5---5---o|
E|----5---5-5-5---------------3-3-----------3------|

                             Repeat x3
G|------------------------------------|----------------------------------|
D|o----------------------------------o|----------------------------------|
A|o--0-0-2h3p2-0-----0-0-2h3p2---5---o|--0-0-2h3p2-0-----------------5---|
E|-----------------------------3------|----------------------------3-----|

Verse 3                      Repeat x4
G|------------------------------------|--------------------|
D|o----------------------------------o|--5-----5-----5-----|
A|o--0-0-2h3p2-0-----0-0-2h3p2---5---o|----5-----5-----5---|
E|-----------------------------3------|--------------------|

Chorus
G|-------------------------------------------------|
D|o---------------------------------5-------------o|
A|o---------------3---3-3-3-------5---5-5-5---5---o|
E|----5---5-5-5---------------3-3-----------3------|

G|------------------------------------|
D|------------------------------------|
A|-----------5----------0-0-2h3p2-0---|
E|---------3--------------------------|

===============================================================================

-------------------------------------------------------------------------------
                                 Life Sentence
-------------------------------------------------------------------------------

Tuning: Standard

Intro
G|--------------------------------------------------|
D|--------------------------------------------------|
A|--------------------------------------------------|
E|--3-3-5---5-5-3-0-----0-----0-----3-3-5---5-5-3---|

G|--------------------------------------------------------------------------|
D|o------------------5-----------------5-----------------5-----------------o|
A|o--------------7-5---------------7-5---------------7-5-------------------o|
E|---0--0-0--0-0-------0--0-0--0-0-------0--0-0--0-0-------3-3-5---5-5-3----|

Verse 1 - Sounds good with above riff but I think what is played is this...
G|---------------------------------------------------------------------------|
D|o-------------------------------------------------------------------------o|
A|o------------------5h7-----------------5h7--------------------------------o|
E|---0--0-0--0-0--0------0--0-0--0-0--0------0--0-0--0-0--0-3-3-5---5-5-3----|

Chorus
G|------------------------------------------------------------|
D|------------------------------------------------------------|
A|--3-3-3---2-3-4-5-5-5---4-5-6-7-7-7---5-7-5-7-7-7---0-1-2---|
E|------------------------------------------------------------|

G|--------------------------------------------------------------|
D|--------------------------------------------------------------|
A|--3-3-3---2-3-4-5-5-5---4-5-6---------------------------------|
E|------------------------------5-5-5---4-5-6-7-7-7-7-7-5---3---|

G|--------------------------------------------------------------------------|
D|o------------------5-----------------5-----------------5-----------------o|
A|o--------------7-5---------------7-5---------------7-5-------------------o|
E|---0--0-0--0-0-------0--0-0--0-0-------0--0-0--0-0-------3-3-5---5-5-3----|

Verse 2
G|--------------------------------------------------------------------------|
D|o------------------------------------------------------------------------o|
A|o------------------5h7-----------------5h7-------------------------------o|
E|---0--0-0--0-0--0------0--0-0--0-0--0------0--0-0--0-0--0-3-3-5---5-5-3---|

Chorus
G|------------------------------------------------------------|
D|------------------------------------------------------------|
A|--3-3-3---2-3-4-5-5-5---4-5-6-7-7-7---5-7-5-7-7-7---0-1-2---|
E|------------------------------------------------------------|

G|--------------------------------------------------------------|
D|--------------------------------------------------------------|
A|--3-3-3---2-3-4-5-5-5---4-5-6---------------------------------|
E|------------------------------5-5-5---4-5-6-7-7-7-7-7-5---3---|

Guitar solo
G|--------------------------------------------------------------------------|
D|o------------------5-----------------5-----------------5-----------------o|
A|o--------------7-5---------------7-5---------------7-5-------------------o|
E|---0--0-0--0-0-------0--0-0--0-0-------0--0-0--0-0-------3-3-5---5-5-3----|

Bridge                 Repeat x7
G|------------------------------|-------------------|
D|o----------------------------o|-------------------|
A|o----------------------------o|-------------------|
E|---0--0--0-0-0--0--0-0--0-0---|---3-3-5---5-5-3---|

                       Repeat x3
G|------------------------------|-------------------|
D|o----------------------------o|-------------------|
A|o----------------------------o|-------------------|
E|---0--0--0-0-0--0--0-0--0-0---|---3-3-5---5-5-3---|

Chorus
G|------------------------------------------------------------|
D|------------------------------------------------------------|
A|--3-3-3---2-3-4-5-5-5---4-5-6-7-7-7---5-7-5-7-7-7---0-1-2---|
E|------------------------------------------------------------|

G|---------------------------------------------------------------|
D|---------------------------------------------------------------|
A|--3-3-3---2-3-4-5-5-5---4-5-6----------------------------------|
E|------------------------------5-5-5---4-5-6-7-7-7-7-7-5---3----|

                                                                   1st time only
G|----------------------------------------------------------------|------------|
D|o------------------5-----------------5-----------------5--------|-----------o|
A|o--------------7-5---------------7-5---------------7-5----------|-----------o|
E|---0--0-0--0-0-------0--0-0--0-0-------0--0-0--0-0-------3-3-5--|---5-5-3----|

G|---------------------------------------|
D|---------------------------------------|
A|---------------------------------------|
E|----3-3-5-----3-3-5---5---5---3---0----|

===============================================================================


---------------------------------------------------------------------------------
                                  Long Way Home
---------------------------------------------------------------------------------

Tuning: Standard

Intro                                                                Repeat x4
G|----------------------------------------------|-----------------------------|
D|----------------------------------------------|o---------------------------o|
A|--2-2-2-2-2-2-2-2-2-2-2-4-5-5-5-5-5-5-5-------|o--------------------0-1-2--o|
E|-------------------------------------------5--|---0---0-0---3---------------|

Verse 1                Repeat x8
G|------------------------------|
D|o----------------------------o|
A|o--------------------0-1-2---o|
E|---0---0-0---3----------------|

Chorus
G|------------------------------------------------------------------------------|
D|------------------------------------------------------------------------------|
A|-----------------------------------------------------------------------0-1-2--|
E|--5-5-5-3h5-5-5-3h5-5-5-3h5-5-5-3h5-5-5-3h5-5-5--3---0---0-0---3--------------|

G|-----------------------------------------------------------------------|
D|-----------------------------------------------------------------------|
A|---------------------0-1-2-2-2-2-2-2-2-2-2-2-2-4-5-5-5-5-5-5-5---------|
E|---0---0-0---3-----------------------------------------------------5---|

                       Repeat x4
G|------------------------------|
D|o----------------------------o|
A|o--------------------0-1-2---o|
E|---0---0-0---3----------------|

Verse 2                Repeat x8
G|------------------------------|
D|o----------------------------o|
A|o--------------------0-1-2---o|
E|---0---0-0---3----------------|

Chorus
G|------------------------------------------------------------------------------|
D|------------------------------------------------------------------------------|
A|-----------------------------------------------------------------------0-1-2--|
E|--5-5-5-3h5-5-5-3h5-5-5-3h5-5-5-3h5-5-5-3h5-5-5--3---0---0-0---3--------------|

G|-----------------------------------------------------------------------|
D|-----------------------------------------------------------------------|
A|---------------------0-1-2-2-2-2-2-2-2-2-2-2-2-4-5-5-5-5-5-5-5---------|
E|---0---0-0---3-----------------------------------------------------5---|

                       Repeat x4
G|------------------------------|
D|o----------------------------o|
A|o--------------------0-1-2---o|
E|---0---0-0---3----------------|

Guitar solo
G|------------------------------------------------------------------------------|
D|------------------------------------------------------------------------------|
A|-----------------------------------------------------------------------0-1-2--|
E|--5-5-5-3h5-5-5-3h5-5-5-3h5-5-5-3h5-5-5-3h5-5-5--3---0---0-0---3--------------|

G|-----------------------------------------------------------------------|
D|-----------------------------------------------------------------------|
A|---------------------0-1-2-2-2-2-2-2-2-2-2-2-2-4-5-5-5-5-5-5-5---------|
E|---0---0-0---3-----------------------------------------------------5---|


G|------------------------------|
D|o----------------------------o|
A|o--------------------0-1-2---o|
E|---0---0-0---3----------------|

Verse 3                Repeat x8
G|------------------------------|
D|o----------------------------o|
A|o--------------------0-1-2---o|
E|---0---0-0---3----------------|

Chorus
G|------------------------------------------------------------------------------|
D|------------------------------------------------------------------------------|
A|-----------------------------------------------------------------------0-1-2--|
E|--5-5-5-3h5-5-5-3h5-5-5-3h5-5-5-3h5-5-5-3h5-5-5--3---0---0-0---3--------------|

G|-----------------------------------------------------------------------|
D|-----------------------------------------------------------------------|
A|---------------------0-1-2-2-2-2-2-2-2-2-2-2-2-4-5-5-5-5-5-5-5---------|
E|---0---0-0---3-----------------------------------------------------5---|

                       Repeat x4                     Repeat x4
G|------------------------------|-----------------------------|-------|
D|o----------------------------o|o---------------------------o|-------|
A|o--------------------0-1-2---o|o---------------------------o|-------|
E|---0---0-0---3----------------|---0-0-0-2-2-2-3-3-3-5-5-7---|---0---|

===============================================================================

-------------------------------------------------------------------------------
                               Can't Hold Back
-------------------------------------------------------------------------------

Tuning: Standard

Intro (0:16)
G|------------------------------------------------------------|
D|------------------------------------------------------------|
A|------------------------------------------------------------|
E|---5-----5-----5-----5-----5-----5-----5-5-5-5-5-5-5-5-5----|

Verse 1                       Repeat x4
G|-------------------------------------|-------------------------------------|
D|o-----------------------------------o|o-----------------------------------o|
A|o----5------------------------------o|o----5---5-5-5-5-5-5-5-5-5-5-5-5-5--o|
E|---5---3-5-5-5-5-5-5-5-5-5-5-5-5-5---|---5---3-----------------------------|

Chorus
G|-------------------------------------|-----------------------------------|-R-|
D|o-----------------------------------o|-----------------------------------|-E-|
A|o----5------------------------------o|----5------------------------------|-S-|
E|---5---3-5-5-5-5-5-5-5-5-5-5-5-5-5---|--5---3-0-0-3-5-0-0-0-0-0-0-0-0-0--|-T-|

G|--------------------------------------|
D|o------------------------------------o|
A|o----5-------------------------------o|
E|---5---3-5-5-5-5-5-5-5-5-5-5-5-5-5----|

Verse 2                       Repeat x4
G|-------------------------------------|-------------------------------------|
D|o-----------------------------------o|o-----------------------------------o|
A|o----5------------------------------o|o----5---5-5-5-5-5-5-5-5-5-5-5-5-5--o|
E|---5---3-5-5-5-5-5-5-5-5-5-5-5-5-5---|---5---3-----------------------------|

Chorus
G|-------------------------------------|-----------------------------------|-R-|
D|o-----------------------------------o|-----------------------------------|-E-|
A|o----5------------------------------o|----5------------------------------|-S-|
E|---5---3-5-5-5-5-5-5-5-5-5-5-5-5-5---|--5---3-0-0-3-5-0-0-0-0-0-0-0-0-0--|-T-|

G|-------------------------------------|-------------------------------------|
D|o-----------------------------------o|o------------------------------------|
A|o----5------------------------------o|o----5---3-3-3-3-3-3-3-3-3-3-3-3-3---|
E|---5---3-5-5-5-5-5-5-5-5-5-5-5-5-5---|---5---3-----------------------------|

G|------------------------------------|--------------------------------------|
D|-----------------------------------o|o------------------------------------o|
A|----5---5-5-5-5-5-5-5-5-5-5-5-5-5--o|o--7-7-7-7-7-7-7-7-7-7-7-7-7-7-7-7---o|
E|--5---3-----------------------------|--------------------------------------|

Guitar solo                   Repeat x4
G|-------------------------------------|-------------------------------------|
D|o-----------------------------------o|o-----------------------------------o|
A|o----5------------------------------o|o----5---5-5-5-5-5-5-5-5-5-5-5-5-5--o|
E|---5---3-5-5-5-5-5-5-5-5-5-5-5-5-5---|---5---3-----------------------------|

G|-------------------------------------|-------------------------------------|
D|o-----------------------------------o|-------------------------------------|
A|o----5------------------------------o|-----5-------------------------------|
E|---5---3-5-5-5-5-5-5-5-5-5-5-5-5-5---|---5---3-0-0-3-5-0-0-0-0-0-0-0-0-0---|

G|-------------------------------------|-------------------------------------|
D|-------------------------------------|o-----------------------------------o|
A|-------------------------------------|o----5------------------------------o|
E|--------------------------------10\--|---5---3-5-5-5-5-5-5-5-5-5-5-5-5-5---|

Verse 3                       Repeat x4
G|-------------------------------------|-------------------------------------|
D|o-----------------------------------o|o-----------------------------------o|
A|o----5------------------------------o|o----5---5-5-5-5-5-5-5-5-5-5-5-5-5--o|
E|---5---3-5-5-5-5-5-5-5-5-5-5-5-5-5---|---5---3-----------------------------|

Chorus
G|-------------------------------------|-----------------------------------|-R-|
D|o-----------------------------------o|-----------------------------------|-E-|
A|o----5------------------------------o|----5------------------------------|-S-|
E|---5---3-5-5-5-5-5-5-5-5-5-5-5-5-5---|--5---3-0-0-3-5-0-0-0-0-0-0-0-0-0--|-T-|

G|-------------------------------------|-----------------------------------|-R-|
D|o-----------------------------------o|-----------------------------------|-E-|
A|o----5------------------------------o|----5------------------------------|-S-|
E|---5---3-5-5-5-5-5-5-5-5-5-5-5-5-5---|--5---3-0-0-3-5-0-0-0-0-0-0-0-0-0--|-T-|

G|------------------------------------------------------------------------|
D|------------------------------------------------------------------------|
A|-----5-------------5-------------5------------5-----------------5-------|
E|---5---3-5-5-5-5-5---3-5-5-5-5-5---3-5-5-5-5-5--3---0---------5---3-5---|

===============================================================================

-------------------------------------------------------------------------------
                                  Texas
-------------------------------------------------------------------------------

Tuning: Standard

Intro (0:09)                         Repeat x3
G|---------------|----------------------------|--------------------------|
D|---------------|o--------------------------o|--------------------------|
A|---------------|o------3---3-----3-5-5-3---o|------3---3---------------|
E|---3---3---3---|---5-5---5---5-5------------|--5-5---5---5-3---3---3---|

Verse 1              Repeat x4
G|----------------------------|
D|o--------------------------o|
A|o------3---3-----3-5-5-3---o|
E|---5-5---5---5-5------------|

Chorus     Repeat x4                                       Repeat x4
G|------------------|----------------------------|------------------|
D|o----------------o|o--------------------------o|o----------------o|
A|o--5---5---5-3---o|o------3---3-----3-5-5-3---o|o--5---5---5-3---o|
E|------------------|---5-5---5---5-5------------|------------------|

G|----------------------------|----------------------------------|
D|o--------------------------o|----------------------------------|
A|o------3---3-----3-5-5-3---o|----7---7---7---7\----------------|
E|---5-5---5---5-5------------|--0---0---0---0---0-0-0-0-2-3-4---|

                     Repeat x3
G|----------------------------|--------------------------|
D|o--------------------------o|--------------------------|
A|o------3---3-----3-5-5-3---o|------3---3---------------|
E|---5-5---5---5-5------------|--5-5---5---5-3---3---3---|

Verse 2              Repeat x4
G|----------------------------|
D|o--------------------------o|
A|o------3---3-----3-5-5-3---o|
E|---5-5---5---5-5------------|

Chorus     Repeat x4                                       Repeat x4
G|------------------|----------------------------|------------------|
D|o----------------o|o--------------------------o|o----------------o|
A|o--5---5---5-3---o|o------3---3-----3-5-5-3---o|o--5---5---5-3---o|
E|------------------|---5-5---5---5-5------------|------------------|

G|----------------------------|----------------------------------|
D|o--------------------------o|----------------------------------|
A|o------3---3-----3-5-5-3---o|----7---7---7---7\----------------|
E|---5-5---5---5-5------------|--0---0---0---0---0-0-0-0-2-3-4---|

G|------------------------------------------------|
D|------------------------------------------------|
A|------3---3-----3-5-5-3-----3---3---------------|
E|--5-5---5---5-5---------5-5---5---5-3---3---3---|

Guitar solo          Repeat x4
G|----------------------------|--------------------------------------------|
D|o--------------------------o|--------------------------------------------|
A|o------3---3-----3-5-5-3---o|--0---3---5---7---0---3---5---7-------------|
E|---5-5---5---5-5------------|----------------------------------0-2-3-4---|

                       Repeat x4                    Repeat x8
G|------------------------------|----------------------------|
D|o----------------------------o|o--------------------------o|
A|o------3-5-5-7-----3-5-5-3---o|o------3---3-----3-5-5-3---o|
E|---5-5---------5-5------------|---5-5---5---5-5------------|

Verse 3           Repeat x7                                           Repeat x4
G|-------------------------|-------------------------|-------------------------|
D|o-----------------------o|-------------------------|o-----------------------o|
A|o-----3---3-----3-5-5-3-o|------3---3--------------|o-----3---3-----3-5-5-3-o|
E|--5-5---5---5-5----------|--5-5---5---5-3---3---3--|--5-5---5---5-5----------|

Chorus   Repeat x4
G|----------------|--------------------------|---------------------------------|
D|o--------------o|o------------------------o|---------------------------------|
A|o-5---5---5-3--o|o-----3---3-----3-5-5-3--o|----7---7---7---7\---------------|
E|----------------|--5-5---5---5-5-----------|--0---0---0---0---0-0-0-0-2-3-4--|

G|--------------------------------------------------|
D|o------------------------------------------------o|
A|o------3---3-----3-5-5-3-----3---3---------------o|
E|---5-5---5---5-5---------5-5---5---5-3---3---3----|

                       Repeat x3
G|------------------------------|------|
D|o----------------------------o|------|
A|o------3-5-5-3---------------o|------|
E|---5-5---------5-3---3---3----|--5---|

===============================================================================

-------------------------------------------------------------------------------
                                 Hands Off
-------------------------------------------------------------------------------

Tuning: Standard

Intro (0:22)
G|-------------------------------------------------------------|
D|---7---5-----------------------------------------------7-----|
A|-----------7---------------5---5-----------5-------7-9---9---|
E|---------------5---5---5-7---------0-2-3-------5-------------|

Verse 1                                     Repeat x3
G|--------------------------------------------------|
D|o------------------------------------------7-----o|
A|o--------------5---5-----------5-------7-9---9---o|
E|---5---5---5-7---------0-2-3-------5--------------|

G|--------------------------------------------------|
D|---------------------------------------7---5------|
A|---------------5---5-----------5------------------|
E|---5---5---5-7---------0-2-3-------5--------------|

Chorus
G|--------------------------------------------------|
D|---------------------5-7---5-------------7---5----|
A|-------------------7-----7------------------------|
E|---0-2-3-------5-------------3-------5------------|

G|----------------------------------------------------|
D|---------------------5-7---5-------------7---5------|
A|-------------------7-----7-------5--------------7---|
E|---0-2-3-------5-------------3-------5--------------|

G|-------------------------------------------------|
D|-------------------------------------------7-----|
A|---------------5---5-----------5-------7-9---9---|
E|---5---5---5-7---------0-2-3-------5-------------|

Verse 2                                       
G|--------------------------------------------------|
D|o------------------------------------------7-----o|
A|o--------------5---5-----------5-------7-9---9---o|
E|---5---5---5-7---------0-2-3-------5--------------|

Chorus
G|-------------------------------------------------|
D|---------------------5-7---5-------------7---5---|
A|-------------------7-----7-----------------------|
E|---0-2-3-------5-------------3-------5-----------|

G|----------------------------------------------------|
D|---------------------5-7---5-------------7---5------|
A|-------------------7-----7-------5--------------7---|
E|---0-2-3-------5-------------3-------5--------------|

Guitar solo                                Repeat x5
G|--------------------------------------------------|
D|o------------------------------------------7-----o|
A|o--------------5---5-----------5-------7-9---9---o|
E|---5---5---5-7---------0-2-3-------5--------------|

Verse 3                                    Repeat x3
G|--------------------------------------------------|
D|o------------------------------------------7-----o|
A|o--------------5---5-----------5-------7-9---9---o|
E|---5---5---5-7---------0-2-3-------5--------------|

G|------------------------------------------------|
D|---------------------------------------7---5----|
A|---------------5---5-----------5----------------|
E|---5---5---5-7---------0-2-3-------5------------|

Chorus
G|-------------------------------------------------|
D|---------------------5-7---5-------------7---5---|
A|-------------------7-----7-----------------------|
E|---0-2-3-------5-------------3-------5-----------|

G|---------------------------------------------------------------------------|
D|-------------------7---5-------------------5-7---5---------------5-7---5---|
A|---------------------------------5-------7-----7-------5-------7-----7-----|
E|---0-2-3-------5---------0-2-3-------5-------------3-------5---------------|

G|---------------------------------------------------------------|
D|---------------7---5-------------------5-7---5-----------------|
A|-------5---------------------5-------7-----7-------5-----------|
E|---3-------5---------0-2-3-------5-------------3-------5-------|



| /  slide up
| \  slide down
| h  hammer-on
| p  pull-off
| ~  vibrato
| +  harmonic
| x  Mute note

===============================================================================


Добавлено: 31.05.2016
Другие материалы по этой песне:
  • Аккорды и текст

Страница создана 31.05.2016
http://primanota.ru/junkyard/junkyard-album-chords.htm
Привет, Гость.
Предлагаем пройти революционный курс по гитаре.
Подарок от PrimaNota.Ru, забирай!