PrimaNota.ru - самый крупный в мире бесплатный архив песенных текстов, аккордов, табулатур и нот


Junkyard - Hot Rod - бас-таба, видео

Регистрация Запомнить меня
Войти через:  Facebook Google Twitter Vk Yandex Mail.ru

Junkyard - Hot Rod - бас-таба, видео

Печатать
Просмотров: 101
-------------------------------------------------------------------------------
                                            Hot Rod - Junkyard
-------------------------------------------------------------------------------

Tabbed by: ChrisT

From the Album: Junkyard (1989)

Tuning: standard

Intro
G|----------------------------------------------------------------|
D|----------------------------------------------------------------|
A|-----------------------2-------------2-------------2--/7---7\---|
E|--12---12\-0-0-2-2-3-3---0-0-2-2-3-3---0-0-2-2-3-3--------------|

Verse 1                                                       Repeat x3
G|---------------------------------------------------------------------|
D|o-------------------------------------------------------------------o|
A|o-----------------------------------------------------------3---3---o|
E|---0---2---0---2---0---2---3---3---5---5---5---5---5---5-------------|

G|------------------------------------------------------------------|
D|------------------------------------------------------------------|
A|------------------------------------------------------------------|
E|--0---2---0---2---0---2---3---3---5---5---5---5---5---5---5---5---|

Chorus
G|----------------------------------------------------------------|
D|----------------------------------------------------------------|
A|--5---5-5-----------------------5---5-5-------------------------|
E|----------5---5-5-0-0-3-3-0-0-0---------5---5-5-0-0-3-3-0-0-0---|

G|------------------------------------------------|
D|------------------------------------------------|
A|--5---5-5---------------------0h2-2-2-2-2-2-2---|
E|----------5---5-5-0-0-3-3-0-0-------------------|

G|-------------------------------------------------------|
D|-------------------------------------------------------|
A|--------------2-------------2-------------2--/7---7\---|
E|--0-0-2-2-3-3---0-0-2-2-3-3---0-0-2-2-3-3--------------|

Verse 2                                                      Repeat x3
G|---------------------------------------------------------------------|
D|o-------------------------------------------------------------------o|
A|o-----------------------------------------------------------3---3---o|
E|---0---2---0---2---0---2---3---3---5---5---5---5---5---5-------------|

G|------------------------------------------------------------------|
D|------------------------------------------------------------------|
A|------------------------------------------------------------------|
E|--0---2---0---2---0---2---3---3---5---5---5---5---5---5---5---5---|

Chorus
G|----------------------------------------------------------------|
D|----------------------------------------------------------------|
A|--5---5-5-----------------------5---5-5-------------------------|
E|----------5---5-5-0-0-3-3-0-0-0---------5---5-5-0-0-3-3-0-0-0---|

G|------------------------------------------------|
D|------------------------------------------------|
A|--5---5-5---------------------0h2-2-2-2-2-2-2---|
E|----------5---5-5-0-0-3-3-0-0-------------------|

G|-------------------------------------------------------|
D|-------------------------------------------------------|
A|--------------2-------------2-------------2--/7---7\---|
E|--0-0-2-2-3-3---0-0-2-2-3-3---0-0-2-2-3-3--------------|

Guitar Solo                Not 4th time    Repeat x4      
G|------------------------|------------------------|---------------------|
D|o-----------------------|-----------------------o|---------------------|
A|o------4-5-6-7-7-6-5-4--|-----------------------o|---------------------|
E|---5-5------------------|--0-0-2-0---0-0-2-3-4---|---7-7-7-7-7-7-7-7---|

G|-------------------------------------------------------|
D|-------------------------------------------------------|
A|--------------2-------------2-------------2--/7---7\---|
E|--0-0-2-2-3-3---0-0-2-2-3-3---0-0-2-2-3-3--------------|

Verse 3                                                      Repeat x3
G|---------------------------------------------------------------------|
D|o-------------------------------------------------------------------o|
A|o-----------------------------------------------------------3---3---o|
E|---0---2---0---2---0---2---3---3---5---5---5---5---5---5-------------|

G|------------------------------------------------------------------|
D|------------------------------------------------------------------|
A|------------------------------------------------------------------|
E|--0---2---0---2---0---2---3---3---5---5---5---5---5---5---5---5---|

Chorus
G|-----------------------------------------------------------------|
D|o----------------------------------------------------------------|
A|o--5---5-5-----------------------5---5-5-------------------------|
E|-----------5---5-5-0-0-3-3-0-0-0---------5---5-5-0-0-3-3-0-0-0---|

G|-------------------------------------------------|
D|------------------------------------------------o|
A|--5---5-5---------------------0h2-2-2-2-2-2-2---o|
E|----------5---5-5-0-0-3-3-0-0--------------------|

G|-------------------------------------------------------|
D|-------------------------------------------------------|
A|--------------2-------------2-------------2--/7---7\---|
E|--0-0-2-2-3-3---0-0-2-2-3-3---0-0-2-2-3-3--------------|



| /  slide up
| \  slide down
| h  hammer-on
| p  pull-off
| ~  vibrato
| +  harmonic
| x  Mute note
===============================================================================

http://www.junkyardblooze.com/

As always - Please rate or comment
Добавлено: 27.06.2013
Другие материалы по этой песне:
  • Аккорды и текст

Страница создана 27.06.2013
http://primanota.ru/junkyard/hot-rod-chords.htm
Привет, Гость.
Предлагаем пройти революционный курс по гитаре.
Подарок от PrimaNota.Ru, забирай!