PrimaNota.ru - самый крупный в мире бесплатный архив песенных текстов, аккордов, табулатур и нот


Junkyard - Hollywood - бас-таба, видео

Регистрация Запомнить меня
Войти через:  Facebook Google Twitter Vk Yandex Mail.ru

Junkyard - Hollywood - бас-таба, видео

Печатать
Просмотров: 155
Уроки эстрадного вокала в Санкт-Петербурге
-------------------------------------------------------------------------------
                                             Hollywood - Junkyard
-------------------------------------------------------------------------------

Tabbed by: ChrisT

From the album: Junkyard (1989)

Tuning: Standard

Intro
G|------------------------------------|--------|
D|o----------------------------------o|--5-----|
A|o----5-0-0-2h3p2-0-----0-0-2h3p2---o|----5---|
E|---3--------------------------------|--------|

Verse 1                      Repeat x4
G|------------------------------------|--------------------|
D|o----------------------------------o|--5-----5-----5-----|
A|o--0-0-2h3p2-0-----0-0-2h3p2---5---o|----5-----5-----5---|
E|-----------------------------3------|--------------------|

Chorus
G|-------------------------------------------------|
D|o---------------------------------5-------------o|
A|o---------------3---3-3-3-------5---5-5-5---5---o|
E|----5---5-5-5---------------3-3-----------3------|

G|------------------------------------|
D|o----------------------------5-----o|
A|o--0-0-2h3p2-0-----0-0-2h3p2---5---o|
E|------------------------------------|

Verse 2                      Repeat x4
G|------------------------------------|--------------------|
D|o----------------------------------o|--5-----5-----5-----|
A|o--0-0-2h3p2-0-----0-0-2h3p2---5---o|----5-----5-----5---|
E|-----------------------------3------|--------------------|

Chorus
G|-------------------------------------------------|
D|o---------------------------------5-------------o|
A|o---------------3---3-3-3-------5---5-5-5---5---o|
E|----5---5-5-5---------------3-3-----------3------|

Guitar solo
G|------------------------------------------------------|
D|------------------------------------------------------|
A|------------5-----------5-----------5-------------5---|
E|--5-------3---5-------3---5-------3---5-----10\-3-----|

G|-------------------------------------------------|
D|o---------------------------------5-------------o|
A|o---------------3---3-3-3-------5---5-5-5---5---o|
E|----5---5-5-5---------------3-3-----------3------|

                             Repeat x3
G|------------------------------------|----------------------------------|
D|o----------------------------------o|----------------------------------|
A|o--0-0-2h3p2-0-----0-0-2h3p2---5---o|--0-0-2h3p2-0-----------------5---|
E|-----------------------------3------|----------------------------3-----|

Verse 3                      Repeat x4
G|------------------------------------|--------------------|
D|o----------------------------------o|--5-----5-----5-----|
A|o--0-0-2h3p2-0-----0-0-2h3p2---5---o|----5-----5-----5---|
E|-----------------------------3------|--------------------|

Chorus
G|-------------------------------------------------|
D|o---------------------------------5-------------o|
A|o---------------3---3-3-3-------5---5-5-5---5---o|
E|----5---5-5-5---------------3-3-----------3------|

G|------------------------------------|
D|------------------------------------|
A|-----------5----------0-0-2h3p2-0---|
E|---------3--------------------------|



| /  slide up
| \  slide down
| h  hammer-on
| p  pull-off
| ~  vibrato
| +  harmonic
| x  Mute note

===============================================================================

Please Rate or Comment.........
Добавлено: 30.10.2013
Другие материалы по этой песне:
  • Аккорды и текст

Страница создана 30.10.2013
http://primanota.ru/junkyard/hollywood-chords.htm
Привет, Гость.
Предлагаем пройти революционный курс по гитаре.
Подарок от PrimaNota.Ru, забирай!