PrimaNota.ru - самый крупный в мире бесплатный архив песенных текстов, аккордов, табулатур и нот


Junkyard - Blooze - бас-таба, видео

Регистрация Запомнить меня
Войти через:  Facebook Google Twitter Vk Yandex Mail.ru

Junkyard - Blooze - бас-таба, видео

Печатать
Просмотров: 93
------------------------------------------------------------------------------------
                                               Blooze - Junkyard
------------------------------------------------------------------------------------

Tabbed by:  ChrisT

From the album: Junkyard (1989) 

Tuning: Standard

Intro
G|-----------------------------------------------------|
D|-----------------------------------------------------|
A|-------------------3h5-3-0-3-------------------------|
E|-----------------------------5-3-5-------------------|

G|------------------------------------------------------------|--------------------|
D|o----------------------------------------------------------o|--------------------|
A|o--3h5-3-0-3-----------------------------------------------o|--3h5-3-0-3-----5---|
E|-------------5-3-5-5-5-5-5-5-3-5-5-5-5-5-5-3-5-5-5-5-5-5----|------------5-3-----|

Verse 1
G|---------------------------------------------------------------------|
D|o--------------------------------------------------------------------|
A|o--5-5-5-5-5-5-5-5-5-5-5-5-5-5-5-3-5-5-5-5-5-5-5-5-5-5-5-5-5-5-5-3---|
E|---------------------------------------------------------------------|

                                               1st time only
G|--------------------------------------------|-------------------|
D|--------------------------------------------|------------------o|
A|--------------------------------------------|------------------o|
E|--5-5-5-5-5-5-3-5-5-5-5-5-5-3-5-5-5-5-5-5---|--3-5-5-5-5-5-5----|

Chorus
G|------------------------------------------------|
D|------------------------------------------------|
A|--3h5-3-0-3---------------------5---3-----------|
E|------------5-3-0-0---0-0---0-0---------5-3-5---|

                                            1st time only
G|-----------------------------------------|------------------|------------------|
D|o----------------------------------------|-----------------o|------------------|
A|o----------------------------------------|-3h5-3-0-3-------o|-3h5-3-0-3-----5--|
E|---5-5-5-5-5-3-5-5-5-5-5-5-3-5-5-5-5-5-5-|-----------5-3-5--|-----------5-3----|

Verse 2
G|---------------------------------------------------------------------|
D|o--------------------------------------------------------------------|
A|o--5-5-5-5-5-5-5-5-5-5-5-5-5-5-5-3-5-5-5-5-5-5-5-5-5-5-5-5-5-5-5-3---|
E|---------------------------------------------------------------------|

                                               1st time only
G|--------------------------------------------|-------------------|
D|--------------------------------------------|------------------o|
A|--------------------------------------------|------------------o|
E|--5-5-5-5-5-5-3-5-5-5-5-5-5-3-5-5-5-5-5-5---|--3-5-5-5-5-5-5----|

Chorus
G|------------------------------------------------|
D|------------------------------------------------|
A|--3h5-3-0-3---------------------5---3-----------|
E|------------5-3-0-0---0-0---0-0---------5-3-5---|

G|------------------------------------------------------------|
D|o----------------------------------------------------------o|
A|o----------------------------------------3h5-3-0-3---------o|
E|---5-5-5-5-5-3-5-5-5-5-5-5-3-5-5-5-5-5-5-----------5-3-5----|

Guitar Solo                                  1st time only
G|-----------------------------------------|------------------|------------------|
D|o----------------------------------------|-----------------o|------------------|
A|o----------------------------------------|-3h5-3-0-3-------o|-3h5-3-0-3-----5--|
E|---5-5-5-5-5-3-5-5-5-5-5-5-3-5-5-5-5-5-5-|-----------5-3-5--|-----------5-3----|

G|--------------------------------------------------------------------|
D|--------------------------------------------------------------------|
A|--5-5-5-5-5-5-5-5-5-5-5-5-5-5-5-3-5-5-5-5-5-5-5-5-5-5-5-5-5-5-5-3---|
E|--------------------------------------------------------------------|

G|------------------------------------------------------------|
D|------------------------------------------------------------|
A|------------------------------------------3h5-3-0-3-----5---|
E|--5-5-5-5-5-5-3-5-5-5-5-5-5-3-5-5-5-5-5-5-----------5-3-----|

G|--------------------------------------------------------------------|
D|--------------------------------------------------------------------|
A|--5-5-5-5-5-5-5-5-5-5-5-5-5-5-5-3-5-5-5-5-5-5-5-5-5-5-5-5-5-5-5-3---|
E|--------------------------------------------------------------------|

G|------------------------------------------------------------------------|
D|------------------------------------------------------------------------|
A|------------------------------------------------------------------------|
E|--5-5-5-5-5-5-3-5-5-5-5-5-5-3-5-5-5-5-5-5-3-5-5-5-5-5-5-3-5-5-5-5-5-5---|

G|--------------------------------------------------------------|
D|--------------------------------------------------------------|
A|--------------------------------------------3h5-3-0-3---------|
E|--3-5-5-5-5-5-5-3-5-5-5-5-5-5-3-5-5-5-5-5-5-----------5-3-5---|

Bridge                                         Repeat x8
G|------------------------------------------------------|
D|o----------------------------------------------------o|
A|o--0-0-0-0-0-0-0-0-0-0-0-0-0-0-0-0-3h5-3-0-3---------o|
E|---------------------------------------------5-3-5----|

G|----------------------------------------------------|
D|----------------------------------------------------|
A|--0-0-0-0-0-0-0-0-0-0-0-0-0-0-0-0-3h5-3-0-3-----5---|
E|--------------------------------------------5-3-----|

Verse 3
G|--------------------------------------------------------------------|
D|o-------------------------------------------------------------------|
A|o--5-5-5-5-5-5-5-5-5-5-5-5-5-5-5-3-5-5-5-5-5-5-5-5-5-5-5-5-5-5-5-3--|
E|--------------------------------------------------------------------|

                                               1st time only
G|--------------------------------------------|---------------------|
D|--------------------------------------------|--------------------o|
A|--------------------------------------------|--3h5-3-0-3-----5---o|
E|--5-5-5-5-5-5-3-5-5-5-5-5-5-3-5-5-5-5-5-5---|------------5-3------|

Chorus
G|------------------------------------------------|
D|------------------------------------------------|
A|--3h5-3-0-3---------------------5---3-----------|
E|------------5-3-0-0---0-0---0-0---------5-3-5---|

G|------------------------------------------|
D|------------------------------------------|
A|------------------------------------------|
E|--5-5-5-5-5-3-5-5-5-5-5-5-3-5-5-5-5-5-5---|

G|------------------------------------------------|
D|------------------------------------------------|
A|--3h5-3-0-3---------------------5---3-----------|
E|------------5-3-0-0---0-0---0-0---------5-3-5---|
                                      
G|----------------------------------------------------------|
D|----------------------------------------------------------|
A|----------------------------------------3h5-3-0-3---------|
E|--5-5-5-5-5-3-5-5-5-5-5-5-3-5-5-5-5-5-5-----------5-3-5---|



| /  slide up
| \  slide down
| h  hammer-on
| p  pull-off
| ~  vibrato
| +  harmonic
| x  Mute note
===============================================================================

http://www.myspace.com/junkyard
Добавлено: 18.11.2013
Другие материалы по этой песне:
  • Аккорды и текст

Страница создана 18.11.2013
http://primanota.ru/junkyard/blooze-chords.htm
Привет, Гость.
Предлагаем пройти революционный курс по гитаре.
Подарок от PrimaNota.Ru, забирай!