PrimaNota.ru - самый крупный в мире бесплатный архив песенных текстов, аккордов, табулатур и нот


Junkyard Groove - Its Ok - таба, видео

Регистрация Запомнить меня
Войти через:  Facebook Google Twitter Vk Yandex Mail.ru

Junkyard Groove - Its Ok - таба, видео

Печатать
Просмотров: 101
JUNKYARD GROOVE -IT'S OK 
Album:11-11 [bootleg](2009)
Tabbed by: RTN silvetser (rethinsilvester@gmail.com)


Chords:
G       - 3 2 0 0 3 3
Cadd9   - 0 3 2 0 3 0
D       - 0 0 0 2 3 2
Em7     - 0 2 2 0 3 3

Intro:
 (the following chords are played in  6/8)
       
e|-3------------------|-5------------------|   
B|-1------------------|-3------------------|   
G|-0------------------|-0------------------|   
D|-2------------------|-4------------------|3X 
A|-3------------------|-5------------------|   
E|-0------------------|-0------------------|  
   
e|-8------------------|-10-----------------|
B|-6------------------|--8-----------------|
G|-0------------------|--0-----------------|
D|-7------------------|--9-----------------|
A|-8------------------|-10-----------------|
E|-0------------------|--0-----------------|

e|--------------------|  |----------------------|
B|------------0-------|  |-------------1111-0000|
G|-0------0-2-0-------|2X|-0-------0-2-0000-0000|
D|-0---0-2----0-------|  |-0---0-2--------------|
A|--------------------|  |----------------------|
E|--------------------|  |----------------------|



e|--------------------|  |------------------3333|
B|------------0-------|  |-------------1111-1111|
G|-0------0-2-0-------|2X|-0-------0-2-0000-0000|
D|-0---0-2----0-------|  |-0---0-2--------------|
A|--------------------|  |----------------------|
E|--------------------|  |----------------------|



Verse 1:
 (the following chords are played in  6/8 throughout the verses..same as intro)
       
e|-3------------------|-5------------------|   
B|-1------------------|-3------------------|   
G|-0------------------|-0------------------|   
D|-2------------------|-4------------------|3X 
A|-3------------------|-5------------------|   
E|-0------------------|-0------------------|  
   
e|-8------------------|-10-----------------|
B|-6------------------|--8-----------------|
G|-0------------------|--0-----------------|
D|-7------------------|--9-----------------|
A|-8------------------|-10-----------------|
E|-0------------------|--0-----------------|
This is a story of a girl
Who falls in love with a boy
A story not meant to be
But she could never see
She lived a life to be free
Believed in what would set her free
Knew no cast knew no creed
Only what she believed
In him she believed
In him she wanted
In him she needed
Something she could never find
And all they found
Was a little bit of misery
And nothing at all



Chorus 1:
G         
It's ok 
Cadd9
It's alright
  Em7          
We are the same
     D                 D
And there is no need to cry



Verse 2:(same as verse 1)
e|-3------------------|-5------------------|   
B|-1------------------|-3------------------|   
G|-0------------------|-0------------------|   
D|-2------------------|-4------------------|3X 
A|-3------------------|-5------------------|   
E|-0------------------|-0------------------|  
   
e|-8------------------|-10-----------------|
B|-6------------------|--8-----------------|
G|-0------------------|--0-----------------|
D|-7------------------|--9-----------------|
A|-8------------------|-10-----------------|
E|-0------------------|--0-----------------|
This is a story of a boy
Who falls in love with with a girl
A story not meant to be
But only he could see
He lived a life to fill his greed
Sucked her dry for all his needs
Did what he felt like
And did what he pleased
In him she believed
In him she wanted
In him she needed
Something she could never find
And all they found
Was a little bit of misery
And nothing at all



Chrous 2:
G         
It's ok 
Cadd9
It's alright
  Em7          
We are the same
     D                 D
And there is no need to cry



Bridge: 
G                   Cadd9
Take my hand
  Cadd9
Hold me close
 Em7              Em7
And leave the past behind
  D              D
And walk on to the future

G
Take my hand
Cadd9        D......
And hold me close


Outro:
e|-3------------------|-5------------------|   
B|-1------------------|-3------------------|   
G|-0------------------|-0------------------|   
D|-2------------------|-4------------------|3X 
A|-3------------------|-5------------------|   
E|-0------------------|-0------------------|  
   
e|-8------------------|-10-----------------|
B|-6------------------|--8-----------------|
G|-0------------------|--0-----------------|
D|-7------------------|--9-----------------|
A|-8------------------|-10-----------------|
E|-0------------------|--0-----------------|



DO RATE :)
Fairly simple chords to a very good tune.   
If you have any comments or suggestions please feel free to email the above 
address

Enjoy

cheers

www.junkyardgroove.com
Добавлено: 14.10.2013
Другие материалы по этой песне:
  • Аккорды и текст

Страница создана 14.10.2013
http://primanota.ru/junkyard-groove/its-ok-chords.htm
Привет, Гость.
Предлагаем пройти революционный курс по гитаре.
Подарок от PrimaNota.Ru, забирай!