PrimaNota.ru - самый крупный в мире бесплатный архив песенных текстов, аккордов, табулатур и нот


Junkies - One Punch - бас-таба, видео

Регистрация Запомнить меня
Войти через:  Facebook Google Twitter Vk Yandex Mail.ru

Junkies - One Punch - бас-таба, видео

Печатать
Просмотров: 113
Band:   Junkies
Song:   One punch
Album:  Káros az egészségre (1995)
Tuning: Standart (E A D G)
Tabbed by Varga Alex


Verse
(6x)
             x3
G|-----------||-----------|
D|---75---57-||---75------|
A|-------7---||-------765-|
E|-5---------||-5---------|

Pre-Chorus

G|-----------|----------|
D|---75---57-|-777775---|
A|-------7---|-------75-|
E|-5---------|----------|

Chorus1
(x2)                                x2
G|----------|----------||-----------||
D|----------|----------||---75---57-||
A|----------|-55555555-||-------7---||
E|-77777777-|----------||-5---------||

Bridge

G|-----------|-757------|
D|---75---57-|----57----|
A|-------7---|------75--|
E|-5---------|--------8-|

Verse
Pre-Chorus
Chorus1 x2

Chorus2

G|----------|----------|-----------|----------|----------|--------|
D|----------|----------|---75---57-|----------|----------|--------|
A|----------|----------|-------7---|----------|----------|--------|
E|-55555555-|-33333333-|-5---------|-55555555-|-33333333-|-55/----|

Verse x3
Pre-Chorus
Chorus1 x2
Chorus2

Outro
             x7
G|-----------||-757------|-------|
D|---75---57-||----57----|-------|
A|-------7---||------75--|-------|
E|-5---------||--------8-|-55~~~-|
Добавлено: 11.02.2014
Другие материалы по этой песне:
  • Аккорды и текст

Страница создана 11.02.2014
http://primanota.ru/junkies/one-punch-chords.htm
Привет, Гость.
Предлагаем пройти революционный курс по гитаре.
Подарок от PrimaNota.Ru, забирай!