PrimaNota.ru - самый крупный в мире бесплатный архив песенных текстов, аккордов, табулатур и нот


Junkie Xl - Rock More - таба, видео

Регистрация Запомнить меня
Войти через:  Facebook Google Twitter Vk Yandex Mail.ru

Junkie Xl - Rock More - таба, видео

Печатать
Просмотров: 109
INTRO:

D----------------------|
A----------------------|
F----------------------| X3
C--0--0-0-3--3---------|
G--0--0-0-3--3---------|
C--0--0-0-3--3---------|

D-------------------------------------------------------|
A-------------------------------------------------------|
F-------------------------------------------------------|
C--0--0-0-0-0-p10-p10-p10-p10-p10-p10-------------------|
G--0--0-0-0-0-p10-p10-p10-p10-p10-p10-------------------|
C--0--0-0-0-0-p10-p10-p10-p10-p10-p10-------------------|
(p10 means "Palm muting @ 10th fret")

D----------------------|
A----------------------|
F----------------------| X3
C--0--0-0-3--3---------|
G--0--0-0-3--3---------|
C--0--0-0-3--3---------|

D-------------------------------------------------------|
A-------------------------------------------------------|
F-------------------------------------------------------|
C--0--0-0-0-0-p10-p10-p10-p10-p10-p10-------------------|
G--0--0-0-0-0-p10-p10-p10-p10-p10-p10-------------------|
C--0--0-0-0-0-p10-p10-p10-p10-p10-p10-------------------|

THE BEGINNING OF THE VERSE:

D-----------|
A-----------|
F-----------|
C--3--1-----|
G--3--1-----|
C--3--1-----|

D-----------------------------------|
A-----------------------------------|
F-----------------------------------|
C-----------------------------------| X4
G-----------------------------------|
C-3/5-5-5-5-5-5-5-5-5-5-5-----------|
(3/5 means "Slide from 3th to 5th fret")

D-----------|
A-----------|
F-----------|
C--3--1-----|
G--3--1-----|
C--3--1-----|

D-----------------------------------|
A-----------------------------------|
F-----------------------------------|
C-----------------------------------| X4
G-----------------------------------|
C-3/5-5-5-5-5-5-5-5-5-5-5-----------|

D-----------|
A-----------|
F-----------|
C--3--1-----|
G--3--1-----|
C--3--1-----|

THEN GOES THE VERSE MAIN RIFF

D------------------------|
A------------------------|
F------------------------| X3
C--0--0-0-3--3--3--------|
G--0--0-0-3--3--3--------|
C--0--0-0-3--3--3--------|

D----------------------------------------------|
A----------------------------------------------|
F----------------------------------------------|
C--0--0-0-0-0----------------------------------|
G--0--0-0-0-0----------------------------------|
C--0--0-0-0-0-10-12-12-12-12-10----------------|

D------------------------|
A------------------------|
F------------------------| X3
C--0--0-0-3--3--3--------|
G--0--0-0-3--3--3--------|
C--0--0-0-3--3--3--------|

D---------------------------------------------|
A---------------------------------------------|
F---------------------------------------------|
C--0--0-0-0-0-p0-p0-p0-p0-p0-p0---------------|
G--0--0-0-0-0-p0-p0-p0-p0-p0-p0---------------|
C--0--0-0-0-0-p0-p0-p0-p0-p0-p0---------------|

CHORUS:

D---------------------------------------------------------------------|
A---------------------------------------------------------------------|
F---------------------------------------------------------------------|
C--5-5-5-5-5-5-5-5-5-5-5-5-8-8-8-8-8-8-8-8-8-8-8-8--------------------|
G--5-5-5-5-5-5-5-5-5-5-5-5-8-8-8-8-8-8-8-8-8-8-8-8--------------------|
C--5-5-5-5-5-5-5-5-5-5-5-5-8-8-8-8-8-8-8-8-8-8-8-8--------------------|

D-------------------------------------------------------------------------|
A-------------------------------------------------------------------------|
F-------------------------------------------------------------------------|
C--0--0-0-3--3-p0-p0-p0-p0-p0-p0-p0-p0-p0-p0-p0-p0------------------------|
G--0--0-0-3--3-p0-p0-p0-p0-p0-p0-p0-p0-p0-p0-p0-p0------------------------|
C--0--0-0-3--3-p0-p0-p0-p0-p0-p0-p0-p0-p0-p0-p0-p0------------------------|

D----------------------------------------------------------------------|
A----------------------------------------------------------------------|
F----------------------------------------------------------------------|
C--5-5-5-5-5-5-5-5-5-5-5-5-8-8-8-8-8-8-8-8-8-8-8-8---------------------|
G--5-5-5-5-5-5-5-5-5-5-5-5-8-8-8-8-8-8-8-8-8-8-8-8---------------------|
C--5-5-5-5-5-5-5-5-5-5-5-5-8-8-8-8-8-8-8-8-8-8-8-8---------------------|

D---------------------------------------------------------------------------|
A---------------------------------------------------------------------------|
F---------------------------------------------------------------------------|
C--0--0-0-3--3-p0-p0-p0-p0-p0-p0-p0-p0-p0-p0-p0-p0--------------------------|
G--0--0-0-3--3-p0-p0-p0-p0-p0-p0-p0-p0-p0-p0-p0-p0--------------------------|
C--0--0-0-3--3-p0-p0-p0-p0-p0-p0-p0-p0-p0-p0-p0-p0--------------------------|

D-----------------------------------------------------------------------|
A-----------------------------------------------------------------------|
F-----------------------------------------------------------------------|
C--5-5-5-5-5-5-5-5-5-5-5-5-8-8-8-8-8-8-8-8-8-8-8-8----------------------|
G--5-5-5-5-5-5-5-5-5-5-5-5-8-8-8-8-8-8-8-8-8-8-8-8----------------------|
C--5-5-5-5-5-5-5-5-5-5-5-5-8-8-8-8-8-8-8-8-8-8-8-8----------------------|

D---------------------|
A---------------------|
F---------------------| X2
C--0--0-0-3--3--------|
G--0--0-0-3--3--------|
C--0--0-0-3--3--------|

D-----------------------------------------------------------------------|
A-----------------------------------------------------------------------|
F-----------------------------------------------------------------------|
C--5-5-5-5-5-5-5-5-5-5-5-5-8-8-8-8-8-8-8-8-8-8-8-8----------------------|
G--5-5-5-5-5-5-5-5-5-5-5-5-8-8-8-8-8-8-8-8-8-8-8-8----------------------|
C--5-5-5-5-5-5-5-5-5-5-5-5-8-8-8-8-8-8-8-8-8-8-8-8----------------------|

D------------------------|
A------------------------|
F------------------------| X3
C--0--0-0-3--3--3--------|
G--0--0-0-3--3--3--------|
C--0--0-0-3--3--3--------|


D---------------------------------------------|
A---------------------------------------------|
F---------------------------------------------|
C--0--0-0-0-0---------------------------------|
G--0--0-0-0-0---------------------------------|
C--0--0-0-0-0-10-12-12-12-12-10---------------|

D------------------------|
A------------------------|
F------------------------| X3
C--0--0-0-3--3--3--------|
G--0--0-0-3--3--3--------|
C--0--0-0-3--3--3--------|

D----------------------------------------------|
A----------------------------------------------|
F----------------------------------------------|
C--0--0-0-0-0----------------------------------|
G--0--0-0-0-0----------------------------------|
C--0--0-0-0-0-10-12-12-12-12-10----------------|

SOLO (kind of ;P )

D-------------------------------------------------------|
A-------------------------------------------------------|
F-------------------------------------------------------|
C-------------------------------------------------------| X4
G-------------------------------------------------------|
C--10^12^10--0--3--5--0-3--3--5-0--1--0-----------------|
(10^12^10 means "Bend the string up to 12th fret and loosen it")

D----------------------------------------------------|
A----------------------------------------------------|
F----------------------------------------------------|
C--10^12^10--0--3--5--0-3--3--5-0--1--0--------------| X4
G--10^12^10--0--3--5--0-3--3--5-0--1--0--------------|
C--10^12^10--0--3--5--0-3--3--5-0--1--0--------------|

SOLO END (play 8 times)

D--------------------------------------------------------------------------|
A--------------------------------------------------------------------------|
F--------------------------------------------------------------------------|
C--------------------------------------------------------------------------|
G--------------------------------------------------------------------------|
C--12^-12^-12^-12^-12^-12^-12^-12^-12^-12^-12^-12^-------------------------|
(12^ in this case bend the string up slowly)

D---------------------------------------------------------|
A---------------------------------------------------------|
F---------------------------------------------------------|
C--p0-p0-p0-p0-p0-p0-5--p0-p0-p0-5-5-5-5------------------|
G--p0-p0-p0-p0-p0-p0-5--p0-p0-p0-5-5-5-5------------------|
C--p0-p0-p0-p0-p0-p0-5--p0-p0-p0-5-5-5-5------------------|


THEN:

D---------------------------------------------------------------------|
A---------------------------------------------------------------------|
F---------------------------------------------------------------------|
C--5-5-5-5-5-5-5-5-5-5-5-5-8-8-8-8-8-8-8-8-8-8-8-8--------------------|
G--5-5-5-5-5-5-5-5-5-5-5-5-8-8-8-8-8-8-8-8-8-8-8-8--------------------|
C--5-5-5-5-5-5-5-5-5-5-5-5-8-8-8-8-8-8-8-8-8-8-8-8--------------------|

D--------------------|
A--------------------|
F--------------------| X2
C--0--0-0-3--3-------|
G--0--0-0-3--3-------|
C--0--0-0-3--3-------|

D--------------------------------------------------------------------|
A--------------------------------------------------------------------|
F--------------------------------------------------------------------|
C--5-5-5-5-5-5-5-5-5-5-5-5-8-8-8-8-8-8-8-8-8-8-8-8-------------------|
G--5-5-5-5-5-5-5-5-5-5-5-5-8-8-8-8-8-8-8-8-8-8-8-8-------------------|
C--5-5-5-5-5-5-5-5-5-5-5-5-8-8-8-8-8-8-8-8-8-8-8-8-------------------|

D------------------------|
A------------------------|
F------------------------| X3
C--0--0-0-3--3--3--------|
G--0--0-0-3--3--3--------|
C--0--0-0-3--3--3--------|

D----------------------------------------------|
A----------------------------------------------|
F----------------------------------------------|
C--0--0-0-0-0----------------------------------|
G--0--0-0-0-0----------------------------------|
C--0--0-0-0-0-10-12-12-12-12-10----------------|

D------------------------|
A------------------------|
F------------------------| X3
C--0--0-0-3--3--3--------|
G--0--0-0-3--3--3--------|
C--0--0-0-3--3--3--------|
Добавлено: 09.07.2013
Вам также может быть интересно:
Другие материалы по этой песне:
  • Аккорды и текст

Страница создана 09.07.2013
http://primanota.ru/junkie-xl/rock-more-chords.htm
Привет, Гость.
Предлагаем пройти революционный курс по гитаре.
Подарок от PrimaNota.Ru, забирай!