PrimaNota.ru - самый крупный в мире бесплатный архив песенных текстов, аккордов, табулатур и нот


Junk - Life Is Good - таба, видео

Регистрация Запомнить меня
Войти через:  Facebook Google Twitter Vk Yandex Mail.ru

Junk - Life Is Good - таба, видео

Печатать
Просмотров: 126
-------------------------------------------------------------------------------
			     LIFE IS GOOD - Junk -----------------------------------------------------------------------------
Tabbed by: this is my first tab so im not entirely sure about the strumming but fingering is definitely right.
Email:tab_master@hotmail.com (corrections only please)

Tuning:
You can either retune the b string up to c or you can just play the song without the b/c 
it doesn't make much difference.

Intro
e|-------------------------------|
c|-------------------------------|
G|-------------------------------|
D|-------------------------------|
A|2-2-2-0-0-0-2-2-4-4-4-2-2-2-0-0|
E|-------------------------------|
pm_______________________________
				  x2

e|---------------------------------------------------------------|
c|4-4-4-4-4-4-4-4-----------------2-2-2-2-2-2-2-2----------------|
G|4-4-4-4-4-4-4-4-4-4-4-4-4-4-4-4-2-2-2-2-2-2-2-2-2-2-2-2-2-2-2-2|
D|2-2-2-2-2-2-2-2-4-4-4-4-4-4-4-4-0-0-0-0-0-0-0-0-2-2-2-2-2-2-2-2|
A|----------------2-2-2-2-2-2-2-2-----------------0-0-0-0-0-0-0-0|
E|---------------------------------------------------------------|
								  x2
Verse
e|-------------------------------------------------------------------------------------------------------------------------------|
c|4-4-4-4-4-4-4-4-4-4-4-4-4-4-4-4---------------------------------2-2-2-2-2-2-2-2-2-2-2-2-2-2-2-2--------------------------------|
G|4-4-4-4-4-4-4-4-4-4-4-4-4-4-4-4-4-4-4-4-4-4-4-4-4-4-4-4-4-4-4-4-2-2-2-2-2-2-2-2-2-2-2-2-2-2-2-2-2-2-2-2-2-2-2-2-2-2-2-2-2------|
D|2-2-2-2-2-2-2-2-2-2-2-2-2-2-2-2-4-4-4-4-4-4-4-4-4-4-4-4-4-4-4-4-0-0-0-0-0-0-0-0-0-0-0-0-0-0-0-0-2-2-2-2-2-2-2-2-2-2-2-2-2------|
A|--------------------------------2-2-2-2-2-2-2-2-2-2-2-2-2-2-2-2---------------------------------0-0-0-0-0-0-0-0-0-0-0-0-0------|
E|-------------------------------------------------------------------------------------------------------------------------------|
pm  ____________________________    ______________________________  
 ______________________

1.          I know I can always win            I can do any    thing       I        To 
than dream    I                       Think
2.          One thing I have to know   Just how far that we could go                 I  
 to  go     outside   and   show the whole world

e|-------------------------------------------------------------------------------------------------------------------------------|
c|4-4-4-4-4-4-4-4-4-4-4-4-4-4-4-4---------------------------------2-2-2-2-2-2-2-2-2-2-2-2-2-2-2-2--------------------------------|
G|4-4-4-4-4-4-4-4-4-4-4-4-4-4-4-4-4-4-4-4-4-4-4-4-4-4-4-4-4-4-4-4-2-2-2-2-2-2-2-2-2-2-2-2-2-2-2-2-2-2-2-2-2-2-2-2-2-2-2-2-2------|
D|2-2-2-2-2-2-2-2-2-2-2-2-2-2-2-2-4-4-4-4-4-4-4-4-4-4-4-4-4-4-4-4-0-0-0-0-0-0-0-0-0-0-0-0-0-0-0-0-2-2-2-2-2-2-2-2-2-2-2-2-2------|
A|--------------------------------2-2-2-2-2-2-2-2-2-2-2-2-2-2-2-2---------------------------------0-0-0-0-0-0-0-0-0-0-0-0-0------|
E|-------------------------------------------------------------------------------------------------------------------------------|
pm  ____________________________    ______________________________  ______________________________________________________

1.          You make everything    everything              just right                    
 So        Aliiive
2.          That everything I've got           Some say is not a-lot but             It's what I want

	Chorus
e|-----------------------------------------------------------------------------------------------------------------------|
c|4---4---4---4-------------------2---2---2---2-------------------4---4---4---4------------------------------------------|
G|4---4---4---4---4---4---4---4---2---2---2---2---2---2---2---2---4---4---4---4---4---4---4---4--------------------------|
D|2---2---2---2---4---4---4---4---0---0---0---0---2---2---2---2---2---2---2---2---4---4---4---4---4---0-------2----------|
A|----------------2---2---2---2-------------------0---0---0---0-------------------2---2---2---2-----------0---------4---0|
E|-----------------------------------------------------------------------------------------------------------------------|

	Life is good               when you're around                           Nothing can bring me down

e|-----------------------------------------------------------------------------------------------------------------------|
c|4---4---4---4-------------------2---2---2---2-------------------4---4---4---4------------------------------------------|
G|4---4---4---4---4---4---4---4---2---2---2---2---2---2---2---2---4---4---4---4---4---4---4---4--------------------------|
D|2---2---2---2---4---4---4---4---0---0---0---0---2---2---2---2---2---2---2---2---4---4---4---4---4---0-------2----------|
A|----------------2---2---2---2-------------------0---0---0---0-------------------2---2---2---2-----------0---------4---0|
E|-----------------------------------------------------------------------------------------------------------------------|

     I can't be-lieve    what   I have found                                    Nothing 
 hold me down

Fill 1
e|-------------------------------------|
c|-------------------------------------|
G|-------------------------------------|
D|-2-2-2-2-2-2-2-2-2-2-2-2-2-2-2-2-2---|
A|-------------------------------------|
E|-------------------------------------|
---------------------------------------|  Get Louder->->->->->->->->->->->->

	Fill 2
e|------------------------------------------------------------------------|
c|-------------------------------------------------------------4---4---4--|
G|-------------------------------------------------------------4---4---4--|
D|-------------------------------------------------------------2---2---2--|
A|------------------------------------------------------------------------|
E|------------------------------------------------------------------------|
You wait to hear my call You know just know what to say How could you be, so, cool

Intro
Verse
Chorus
Fill 1
Verse
Chorus
Fill 1 x2
Fill 2
Chorus x2
Outro
===============================================================================
Добавлено: 21.06.2012
Другие материалы по этой песне:
  • Аккорды и текст

Страница создана 21.06.2012
http://primanota.ru/junk/life-is-good-chords.htm
Привет, Гость.
Предлагаем пройти революционный курс по гитаре.
Подарок от PrimaNota.Ru, забирай!