PrimaNota.ru - самый крупный в мире бесплатный архив песенных текстов, аккордов, табулатур и нот


Júníus Meyvant - Signals - таба, видео

Регистрация Запомнить меня
Войти через:  Facebook Google Twitter Vk Yandex Mail.ru

Júníus Meyvant - Signals - таба, видео

Печатать
Просмотров: 171
-------------------------------------------------------------------------------
                             SIGNALS - Júníus Meyvant
-------------------------------------------------------------------------------
Tabbed by: Severin Höin

Tuning: Standard
*** In the original live version he plays everything -1 so you can play the 13th fret in flageolett ***


Tabs (repeat it through the whole song):

e|------------------------------------------------------------------------------------------------|
B|---------16----16----16----------------16----16----------------16----16-------------------------|
G|---16----------------------16----16----------------16----16----------------16----16----16----16-|
D|------16----16----16----------------16----13----------------14----14----------------------------|
A|14----------------------14----14----------------16----16----------------------------------------|
E|------------------------------------------------------------------------14----14----16----16----|

e|------------------------------------------------------------------------------------------------|
B|---------------12----12----12----------12----12----------------12----12-------------------------|
G|---13----13----------------------13----------------13----13----------------13----13----11----11-|
D|------------13----13----13----------13----13----------------13----13----------------------------|
A|11----11----------------------11----------------------------------------11----11----13----13----|
E|------------------------------------------------11----11----------------------------------------|



Intro:
B   C#m   G#m   G#m (2x)


B         C#m
   God of all
       G#m       
I'm in love with you
B         C#m
   God of all
         G#m
Why am I loved by you

            B            C#m
Sending out signals from me
            G#m
Sending out signals
            B          C#m
Sending out signals to you
            G#m
Sending out signals


Break:
B   C#m   G#m   G#m (4x)


B         C#m
   God of all
       G#m       
I'm in love with you
B         C#m
   God of all
         G#m
Why am I loved by you

            B            C#m
Sending out signals from me
            G#m
Sending out signals
            B          C#m
Sending out signals to you
            G#m
Sending out signals


Outro:
B   C#m   G#m   G#m (8x)




************************************

| /   slide up
| \   slide down
| h   hammer-on
| p   pull-off
| ~   vibrato
| +   harmonic
| x   Mute note
| b   Bend
| pb  Pre-bend
| br  Bend release
| pbr Pre-bend release
| brb Bend release bend

************************************
Добавлено: 26.12.2015
Другие материалы по этой песне:
  • Аккорды и текст

Страница создана 26.12.2015
http://primanota.ru/junius-meyvant/signals-chords.htm
Привет, Гость.
Предлагаем пройти революционный курс по гитаре.
Подарок от PrimaNota.Ru, забирай!