PrimaNota.ru - самый крупный в мире бесплатный архив песенных текстов, аккордов, табулатур и нот


Junior Kimbrough - I Feel Good Little Girl - таба, видео

Регистрация Запомнить меня
Войти через:  Facebook Google Twitter Vk Yandex Mail.ru

Junior Kimbrough - I Feel Good Little Girl - таба, видео

Печатать
Просмотров: 213
-------------------------------------------------------------------------------------------
                             I FEEL GOOD LITTLE GIRL - Junior Kimbrough
-------------------------------------------------------------------------------------------

Tabbed by: Marco "mazzukster" Mazzucchi


Tuning: Standard tuning. The original version from "Do the Rump" is played in an 
undefined key between 
Ab major and G major.


Riff ((keep a sincopated beat with your thumb for the whole song)

E|---5--3------------------------------5--3------------------------------------|
B|---------5---5--3--1---1-3-3--1------------5---5--3--1---1-3-3--1------------|
G|---------------------------------2----------------------------------2--------|
D|-----------------------------------------------------------------------------|
A|---0--0--0---0--0--0---0---0--0--0---0--0--0---0--0--0---0-0-0--0---0--------|
E|-----------------------------------------------------------------------------|


Riff (2)

E|----3--------------------3---------------------|
B|-1/3---3---5--3--1--- 1/3---3----5-3--1--------|
G|-------------------2--------------------2------|
D|-----------------------------------------------|
A|-0-0---0-0--0-0--0-0--0-0---0-0--0-0--0-0------|
E|-----------------------------------------------|



Verse

E|---3-p0-h3---------------------3--3--------3--0-3-0-3-0--3--3--------|
B|----------------3/5-5-5--3-5-5---------------------------------------|
G|-------------2------------------------2--------------------------2---|
D|---------------------------------------------------------------------|
A|---0--0-0--0-0--0-0-0-0--0-0---0-0--0-0----0-0--0-0--0-0--0-0--0-0---|
E|---------------------------------------------------------------------|

E|--3--0h3---------3--3-----3/5--5--3-5-3---5---5------3-0-3-0-3-0-3/5-5--/7-7--5--3---|
B|----------3--1--------------------------------------------------------------------5--|
G|--------------2---------2-------------------------2----------------------------------|
D|-------------------------------------------------------------------------------------|
A|--0--0-0--0--0---0--0---0--0---0--0-0-0--0--0--0--0--0-0-0--0--0-0-0---0----0--0--0--|
E|-------------------------------------------------------------------------------------|


e|-----3-------------------------3---------------------------|
B|---1/3------3---5---3--1-----1/3-----3---5---3---1---------|
G|-------------------------2-------------------------2-------|
D|-----------------------------------------------------------|
A|----0---0---0---0---0--0-0-----0--0--0---0---0---0-0-------|
E|-----------------------------------------------------------|



************************************

| /   slide up
| \   slide down
| h   hammer-on
| p   pull-off
| ~   vibrato
| +   harmonic
| x   Mute note
| b   Bend
| pb  Pre-bend
| br  Bend release
| pbr Pre-bend release
| brb Bend release bend

************************************
Добавлено: 15.10.2013
Другие материалы по этой песне:
  • Аккорды и текст

Страница создана 15.10.2013
http://primanota.ru/junior-kimbrough/i-feel-good-little-girl-chords.htm
Привет, Гость.
Предлагаем пройти революционный курс по гитаре.
Подарок от PrimaNota.Ru, забирай!