PrimaNota.ru - самый крупный в мире бесплатный архив песенных текстов, аккордов, табулатур и нот


Junior Kimbrough - I Cried Last Night - таба, видео

Регистрация Запомнить меня
Войти через:  Facebook Google Twitter Vk Yandex Mail.ru

Junior Kimbrough - I Cried Last Night - таба, видео

Печатать
Просмотров: 72
                                  ~~~~~~~~~~~~~~~~~~~~~~~~~~~~~~~~~~~~~~~~
                                             I Cried Last Night 
                                              Junior Kimbrough  
                                             God Knows I Tried
                                  ~~~~~~~~~~~~~~~~~~~~~~~~~~~~~~~~~~~~~~~~
Tabbed by: Connor O.
Tuning: Standard
Capo: 3rd (G C F A# D G)



Comment or message any ideas or corrections. Please rate my tab. If you've got
problems with the tab, I'd encourage you to contact me with those problems so I
can fix the tab or provide advice for playing. Don't just give me a poor rating
and not give me any feedback. The idea is for us all to work together to create
a perfect finished product. This tab just represents the best I can do. It's 
definitely up for peer review.



Key:
where # represents a fret number

#h# - hammer
#p# - pull
/ \ - slides, up and down respectively.
#b# - bend from normal note up to achieve bended note.
#r# - release bend from bended note to normal note.
#b  - a slight bend a.k.a. a curl.
(#) - optional note
 &  - substitution. some symbols (like 5h7 for instance)
      are too big to fit inbetween bass-line hits. " & "
      is used to fit such symbols into the bass-line with out 
      having to increase the spacing of the bass-line. The 
      " & " symbol is used within the boxes and the symbol 
      it is substituting for is shown out side the box. 
      


Intro:


   0:00
    
g |---------------------------------|  &1 = 0h2
D |-------3-----3h5-3p0-------------|  &2 = 2p0
A#|---2/4---4-4---------0---&-2-&---|  
F |-------------------------------2-|  
C |---------------------------------|
G |-0---0---0---0---0---0---0---0---|


   0:05

g |---------------------------------|
D |---------------------------------|
A#|-------0---0h2~p~0---0-----------|
F |---0h2-------------2-------------|
C |---------------------------------|
G |-0---0---0---0---0---0---0---0---|


   0:09
 
g |---------------------------------|
D |-----------3---------------------|
A#|-------0-------4---0---2p0-------|
F |---0h2---------------------2-----|
C |---------------------------------|
G |-0---0---0---0---0---0---0---0---|


   0:13

g |---------------------------------|  &1 = 0h2
D |-------3-----3h5-3---------------|  &2 = 2p0
A#|---2/4---4-4-------4-0---&-2-&---|  
F |-------------------------------2-|  Play twice
C |---------------------------------|
G |-0---0---0---0---0---0---0---0---|


   0:21

g |-----------------------------------------|
D |-----------------------------------------|
A#|-------0---0h2~p~0---0-------------------|
F |---0h2-------------2---------------------|
C |-----------------------------------------|
G |-0---0---0---0---0---0---0---0---0---0---|


   0:26

g |---------------------------------|
D |-----------3---------------------|
A#|-------0-------4---0---2p0-------|
F |---0h2---------------------2-----|
C |---------------------------------|
G |-0---0---0---0---0---0---0---0---|


   0:30

g |---------------------------------|  &1 = 0h2
D |-------3-----3h5-3---------------|  &2 = 2p0
A#|---2/4---4-4-------4-0---&-2-&---|  
F |-------------------------------2-|  Play twice
C |---------------------------------|
G |-0---0---0---0---0---0---0---0---|


   0:39
   Yes I cried last night
g |-------------------------------------|
D |-------------------------------------|
A#|-------0---0h2-----------2-2p0-------|
F |---0h2-------------------------------|
C |-------------------------------------|
G |-0---0---0---0---0---0---0---0---0---|


   0:43

g |---------------------------------|
D |---------------------------------|
A#|-----0-2p0---0-------0-2p0---0---|
F |-----------2-------2-------2-----|
C |---------------------------------|
G |-0---0---0---0---0---0---0---0---|


   0:47
   Babe I cried all night long
g |---------------------------------|
D |-----------3---------------------|
A#|-------0-----------2~~p~~0-------|
F |---0h2---------------------2-----|
C |---------------------------------|
G |-0---0---0---0---0---0---0---0---|


   0:51

g |---------------------------------|  &1 = 0h2
D |-------3-----3h5-3---------------|  &2 = 2p0
A#|---2/4---4-4-------4-0---&-2-&---|  
F |-------------------------------2-|  Play twice
C |---------------------------------|
G |-0---0---0---0---0---0---0---0---|


   1:00
   Yes I cried last night
g |-------------------------------------|
D |-------------------------------------|
A#|-------0---0h2-----------2-2p0-------|
F |---0h2-------------------------------|
C |-------------------------------------|
G |-0---0---0---0---0---0---0---0---0---|


   1:04

g |---------------------------------|
D |---------------------------------|
A#|-----0-2p0---0-------0-2p0---0---|
F |-----------2-------2-------2-----|
C |---------------------------------|
G |-0---0---0---0---0---0---0---0---|

 
   1:08
   Babe I cried all night long
g |---------------------------------|
D |-----------3---------------------|
A#|-------0-----------2~~p~~0-------|
F |---0h2---------------------2-----|
C |---------------------------------|
G |-0---0---0---0---0---0---0---0---|


   1:12

g |---------------------------------|  &1 = 0h2
D |-------3-----3h5-3---------------|  &2 = 2p0
A#|---2/4---4-4-------4-0---&-2-&---|  
F |-------------------------------2-|  Play twice
C |---------------------------------|
G |-0---0---0---0---0---0---0---0---|


   1:20
   Girl you know you done me wrong
g |---------------------------------|
D |-----------3-------3-3-3---3-3-3-|
A#|---2/4-------------------4-------|
F |---------------------------------|
C |---------------------------------|
G |-0---0---0---0---0---0---0---0---|


   1:24

g |---------------------------------|
D |-------------2-------------------|
A#|-4\2---0-----2-------------------|
F |-----2---2---2-------------------|
C |---------------------------------|
G |-0---0---0-----------------------|


   1:26

g |---------------------------------|
D |-----------3---------------------|
A#|-------0-------4\2-0---2p0-------|
F |---0h2---------------------2-----|
C |---------------------------------|
G |-0---0---0---0---0---0---0---0---|


   1:30

g |---------------------------------|  &1 = 0h2
D |-------3-----3h5-3---------------|  &2 = 2p0
A#|---2/4---4-4-------4-0---&-2-&---|  
F |-------------------------------2-|  Play twice
C |---------------------------------|
G |-0---0---0---0---0---0---0---0---|


   1:38
   I tried to love you
g |---------------------------------|
D |---------------------------------|
A#|-------0---0h2-----2~~p~~0-------|
F |---0h2---------------------------|
C |---------------------------------|
G |-0---0---0---0---0---0---0-------|


   1:42
 
g |---------------------------------|
D |---------------------------------|
A#|-----0-2p0---0-------0-2p0---0---|
F |---2-------2-------2-------2-----|
C |---------------------------------|
G |-----0---0---0---0---0---0---0---|


   1:46
   I tried to love you girl
g |---------------------------------|
D |-----------3---------------------|
A#|-------0-------2/4-2~~p~~0-------|
F |---0h2---------------------2-----|
C |---------------------------------|
G |-0---0---0---0---0---0---0---0---|


   1:50

g |---------------------------------|  &1 = 0h2
D |-------3-----3h5-3---------------|  &2 = 2p0
A#|---2/4---4-4-------4-0---&-2-&---|  
F |-------------------------------2-|  Play twice
C |---------------------------------|
G |-0---0---0---0---0---0---0---0---|


   1:58
   I tried to love you
g |-------------------------------------|
D |-------------------------------------|
A#|-------0---0h2-----------2-2p0-------|
F |---0h2-------------------------------|
C |-------------------------------------|
G |-0---0---0---0---0---0---0---0---0---|


   2:02

g |---------------------------------|
D |---------------------------------|
A#|-----0-2p0---0-------0-2p0---0---|
F |---2-------2-------2-------2-----|
C |---------------------------------|
G |-0---0---0---0---0---0---0---0---|


   2:06
   tried to love you as best I do
g |---------------------------------|
D |-----------3---------------------|
A#|-------0-------2/4-2~~p~~0-------|
F |---0h2---------------------2-----|
C |---------------------------------|
G |-0---0---0---0---0---0---0---0---|


   2:10

g |---------------------------------|  &1 = 0h2
D |-------3-----3h5-3---------------|  &2 = 2p0
A#|---2/4---4-4-------4-0---&-2-&---|  
F |-------------------------------2-|  Play twice
C |---------------------------------|
G |-0---0---0---0---0---0---0---0---|


   2:18
   Will you love me little girl?
g |---------------------------------|
D |-----------3-------3-------------|
A#|---2/4-----------------4\2-------|
F |---------------------------------|
C |---------------------------------|
G |-0---0---0---0---0---0---0---0---|


   2:22

g |---------------------------------|
D |-------------0-------------------|
A#|---2-2-2-2---0-------------------|
F |-------------0-------------------|
C |---------------------------------|
G |-0---0---0---0-------------------|


   2:25
   I'll get on my knees
g |---------------------------------|
D |-----------3---------------------|
A#|-------0-------2/4-0~~h2p0-------|
F |---0h2---------------------2-----|
C |---------------------------------|
G |-0---0---0---0---0---0---0---0---|


   2:29

g |---------------------------------|  &1 = 0h2
D |-------3-----5---3---------------|  &2 = 2p0
A#|---2/4---4-4-------4-0---&-2-&---|  
F |-------------------------------2-|  
C |---------------------------------|
G |-0---0---0---0---0---0---0---0---|


   2:33

g |---------------------------------|  &1 = 0h2
D |-------3-----3h5-3---------------|  &2 = 2p0
A#|---2/4---4-4-------4-0---&-2-&---|  
F |-------------------------------2-|  
C |---------------------------------|
G |-0---0---0---0---0---0---0---0---|


   2:37

g |---------------------------------|
D |---------------------------------|
A#|-------0---0h2~p~0---0-----------|
F |---0h2-------------2-------------|
C |---------------------------------|
G |-0---0---0---0---0---0---0-------|


   2:40

g |---------------------------------|
D |---------------------------------|
A#|-----0-2p0---0-------------------|
F |---2-------2---------------------|
C |---------------------------------|
G |-0---0---0---0---0---------------|


   2:42

g |---------------------------------|
D |-----------3---------------------|
A#|-------0-------4---0---2p0-------|
F |---0h2---------------------2-----|
C |---------------------------------|
G |-0---0---0---0---0---0---0---0---|


   2:46

g |---------------------------------|  &1 = 0h2
D |-------3-----3h5-3---------------|  &2 = 2p0
A#|---2/4---4-4-------4-0---&-2-&---|  
F |-------------------------------2-|  Play twice
C |---------------------------------|
G |-0---0---0---0---0---0---0---0---|

 
   2:54

g |---------------------------------|
D |---------------------------------|
A#|-------0---0h2~p~0---0-----------|
F |---0h2-------------2-------------|
C |---------------------------------|
G |-0---0---0---0---0---0---0-------|


   2:57

g |---------------------------------|
D |---------------------------------|
A#|-----0-2p0---0-------------------|
F |---2-------2---------------------|
C |---------------------------------|
G |-0---0---0---0---0---------------|


   2:59

g |---------------------------------|
D |-----------3---------------------|
A#|-------0-------4---0---2p0-------|
F |---0h2---------------------2-----|
C |---------------------------------|
G |-0---0---0---0---0---0---0---0---|


   3:03

g |---------------------------------|  &1 = 0h2
D |-------3-----3h5-3---------------|  &2 = 2p0
A#|---2/4---4-4-------4-0---&-2-&---|  
F |-------------------------------2-|  Play twice
C |---------------------------------|
G |-0---0---0---0---0---0---0---0---|


   3:12

g |---------------------------------|
D |---------------3-----3-----------|
A#|---2/4-4---4-------4-----4-2-----|
F |---------------------------------|
C |---------------------------------|
G |-0---0---0---0---0---0---0---0---|


   3:15

g |---------------------------------|
D |---------------------------------|
A#|-2-2-2-2-2---2-------------------|
F |---------------------------------|
C |---------------------------------|
G |-0---0---0---0-------------------|


   3:18

g |---------------------------------|
D |-----------3---------------------|
A#|-------0-------2/4-0h2~p~0---0---|
F |---0h2---------------------2---2-|
C |---------------------------------|
G |-0---0--(0)-(0)-(0)--0--(0)-(0)--|





g |---------------------------------|
D |-3/5-----------------------------|
A#|---------------------------------|
F |---------------------------------|
C |---------------------------------|
G |---------------------------------|
Добавлено: 10.08.2013
Вам также может быть интересно:
Другие материалы по этой песне:
  • Аккорды и текст

Страница создана 10.08.2013
http://primanota.ru/junior-kimbrough/i-cried-last-night-chords.htm
Привет, Гость.
Предлагаем пройти революционный курс по гитаре.
Подарок от PrimaNota.Ru, забирай!