PrimaNota.ru - самый крупный в мире бесплатный архив песенных текстов, аккордов, табулатур и нот


Junior Boys - Ep - таба, видео

Регистрация Запомнить меня
Войти через:  Facebook Google Twitter Vk Yandex Mail.ru

Junior Boys - Ep - таба, видео

Печатать
Просмотров: 56
-------------------------------------------------------------------------------
                             ep - Junior Boys
-------------------------------------------------------------------------------
Tabbed by: Zetsword
E-mail: zetswordstyle@yahoo.com

Tuning: Standard Tuning

Rhythm Guitar
e---------------------------------------------------------|
B---------8-----------8-----------10-13-----------13------|
G-------9----------------------10--------10----10----10---|
D----10------10----10---10--12--------------12------------|
A-12------------12----------------------------------------|
E---------------------------------------------------------|
  A  C  E  G                 D  F  A C 
Bass
e---------------------------------------------------------|
B---------------------------------------------------------|
G---------------------------------------------------------|
D----------------------3--------3-------------------------|
A-0--3-----0--3-----5--------5----------------------------|
E-------1--------1--------6--------6----------------------|
  A  C  F           D  F  Bb 

Random Other Guitar
e---------------------------------------------------------|
B---5---5-8p6---5-5---------------------------------------|
G-7---7-------7-----7p5-----------------------------------|
D---------------------------------------------------------|
A---------------------------------------------------------|
E---------------------------------------------------------|

Verse
Bass
e---------------------------------------------------------|
B---------------------------------------------------------|
G---------------------------------------------------------|
D---------------------------------------------7-----5-----|
A-----3-----3-----3--------3-----3-----3----5---3-3-------|
E-1-1---1/3---3/1---1--1-1---1/3---3/1---1------------3-3-|


e---------------------------------------------------------|
B---------------------------------------------------------|
G---------------------------------------------------------|
D----------7-----5----------------------------------------|
A-5----5-5---3-3-----5------------------------------------|
E---3--------------3--------------------------------------|

Bridge
Bass
e---------------------------------------------------------|
B---------------------------------------------------------|
G---------------------------------------------------------|
D--------------------5----4-------------------------------|
A-5-------5-----------------------------------------------|
E----1-3-----1-3--3----2-----1--1-3--1--1-3---------------|


************************************

| /   slide up
| \   slide down
| h   hammer-on
| p   pull-off
| ~   vibrato
| +   harmonic
| x   Mute note
| b   Bend
| pb  Pre-bend
| br  Bend release
| pbr Pre-bend release
| brb Bend release bend

************************************
Добавлено: 22.06.2016
Другие материалы по этой песне:
  • Аккорды и текст

Страница создана 22.06.2016
http://primanota.ru/junior-boys/ep-chords.htm
Привет, Гость.
Предлагаем пройти революционный курс по гитаре.
Подарок от PrimaNota.Ru, забирай!