PrimaNota.ru - самый крупный в мире бесплатный архив песенных текстов, аккордов, табулатур и нот


Jungle - Try - бас-таба, видео

Регистрация Запомнить меня
Войти через:  Facebook Google Twitter Vk Yandex Mail.ru

Jungle - Try - бас-таба, видео

Печатать
Просмотров: 73
The jungle is launching this song as an audio in April.


Intro (part 1) - just guitar:

G|----
D|----
A|----
E|----

Intro (part 2) - following the drums:

G|-----------------|
D|-----------------|
A|-----------------|
E|--1--1--1--1--1--|

Intro (part 3) - same as the guitar:

G|--------------------------------------------------------|
D|--------------------------------------------------------|
A|--------------------------------------------------------|
E|--7--7--2--2--3--3--0--0--0--0--7--7--2--2--3--2--1--0--|

All the verses are equal. There are three verses in the song.

Verse (part 1):

G|--------------------------------------------------|
D|--------------------------------------------------|
A|--------------------------------------------------|
E|--7--7--2--2--3--3--0--0--7--7--2--2--3--3--0--0--|

Verse (part 2):

G|-----------------------------------------------------|
D|-----------------------------------------------------|
A|-----------------------------------------------------|
E|--7--7--2--2--3--3--0--0--7--7--2--2--3--3--0--0--0--|

Chorus:

G|----------------------------------------------------------------------------|
D|----------------------------------------------------------------------------|
A|----------------------------------------------------------------------------|
E|--3--3--3--3--3--3--3--9--9--9--9--9--9--9--3--3--3--3--3--3--3--10--9--8/7-|

After the final chorus there is the final.

Final:

G|------------------------------------------------------------------------------------------------------------|
D|------------------------------------------------------------------------------------------------------------|
A|------------------------------------------------------------------------------------------------------------|
E|--6--6--6--6--6--6--6--6--5--5--5--5--5--5--5--5--4--4--4--4--4--4--4--3--2--1--1--1--1--1--1--1--1--0-0-0--|
Добавлено: 01.12.2015
Вам также может быть интересно:
Другие материалы по этой песне:
  • Аккорды и текст

Страница создана 01.12.2015
http://primanota.ru/jungle/try-chords.htm
Привет, Гость.
Предлагаем пройти революционный курс по гитаре.
Подарок от PrimaNota.Ru, забирай!